ISO-10303-21;
HEADER;
/* Generated by software containing ST-Developer
 * from STEP Tools, Inc. (www.steptools.com) 
 */

FILE_DESCRIPTION(
/* description */ (''),
/* implementation_level */ '2;1');

FILE_NAME(
/* name */ 'D:\\PRJ\\23cm Combiner\\M-CAD\\Spacer 9.5mm.stp',
/* time_stamp */ '2025-03-22T19:07:03+01:00',
/* author */ ('Carsten Gr\X\F8n'),
/* organization */ (''),
/* preprocessor_version */ 'ST-DEVELOPER v18',
/* originating_system */ 'Autodesk Inventor 2020',
/* authorisation */ '');

FILE_SCHEMA (('CONFIG_CONTROL_DESIGN'));
ENDSEC;

DATA;
#10=MECHANICAL_DESIGN_GEOMETRIC_PRESENTATION_REPRESENTATION('',(#13),#288);
#11=SHAPE_REPRESENTATION_RELATIONSHIP('SRR','None',#295,#12);
#12=ADVANCED_BREP_SHAPE_REPRESENTATION('',(#14),#287);
#13=STYLED_ITEM('',(#304),#14);
#14=MANIFOLD_SOLID_BREP('Solid1',#170);
#15=FACE_OUTER_BOUND('',#24,.T.);
#16=FACE_OUTER_BOUND('',#25,.T.);
#17=FACE_OUTER_BOUND('',#26,.T.);
#18=FACE_OUTER_BOUND('',#27,.T.);
#19=FACE_OUTER_BOUND('',#28,.T.);
#20=FACE_OUTER_BOUND('',#29,.T.);
#21=FACE_OUTER_BOUND('',#30,.T.);
#22=FACE_OUTER_BOUND('',#31,.T.);
#23=FACE_OUTER_BOUND('',#32,.T.);
#24=EDGE_LOOP('',(#110,#111,#112,#113));
#25=EDGE_LOOP('',(#114,#115,#116,#117));
#26=EDGE_LOOP('',(#118,#119,#120,#121,#122,#123,#124));
#27=EDGE_LOOP('',(#125,#126,#127,#128));
#28=EDGE_LOOP('',(#129,#130,#131,#132));
#29=EDGE_LOOP('',(#133,#134,#135,#136,#137,#138,#139));
#30=EDGE_LOOP('',(#140,#141,#142,#143));
#31=EDGE_LOOP('',(#144,#145,#146,#147));
#32=EDGE_LOOP('',(#148,#149,#150,#151));
#33=LINE('',#244,#54);
#34=LINE('',#246,#55);
#35=LINE('',#248,#56);
#36=LINE('',#249,#57);
#37=LINE('',#252,#58);
#38=LINE('',#254,#59);
#39=LINE('',#255,#60);
#40=LINE('',#258,#61);
#41=LINE('',#260,#62);
#42=LINE('',#262,#63);
#43=LINE('',#264,#64);
#44=LINE('',#265,#65);
#45=LINE('',#268,#66);
#46=LINE('',#270,#67);
#47=LINE('',#271,#68);
#48=LINE('',#274,#69);
#49=LINE('',#275,#70);
#50=LINE('',#277,#71);
#51=LINE('',#279,#72);
#52=LINE('',#280,#73);
#53=LINE('',#282,#74);
#54=VECTOR('',#203,10.);
#55=VECTOR('',#204,10.);
#56=VECTOR('',#205,10.);
#57=VECTOR('',#206,10.);
#58=VECTOR('',#209,10.);
#59=VECTOR('',#210,10.);
#60=VECTOR('',#211,10.);
#61=VECTOR('',#214,10.);
#62=VECTOR('',#215,10.);
#63=VECTOR('',#216,10.);
#64=VECTOR('',#217,10.);
#65=VECTOR('',#218,10.);
#66=VECTOR('',#221,10.);
#67=VECTOR('',#222,10.);
#68=VECTOR('',#223,10.);
#69=VECTOR('',#226,10.);
#70=VECTOR('',#227,10.);
#71=VECTOR('',#230,10.);
#72=VECTOR('',#231,10.);
#73=VECTOR('',#232,10.);
#74=VECTOR('',#235,10.);
#75=VERTEX_POINT('',#242);
#76=VERTEX_POINT('',#243);
#77=VERTEX_POINT('',#245);
#78=VERTEX_POINT('',#247);
#79=VERTEX_POINT('',#251);
#80=VERTEX_POINT('',#253);
#81=VERTEX_POINT('',#257);
#82=VERTEX_POINT('',#259);
#83=VERTEX_POINT('',#261);
#84=VERTEX_POINT('',#263);
#85=VERTEX_POINT('',#267);
#86=VERTEX_POINT('',#269);
#87=VERTEX_POINT('',#273);
#88=VERTEX_POINT('',#278);
#89=EDGE_CURVE('',#75,#76,#33,.T.);
#90=EDGE_CURVE('',#76,#77,#34,.T.);
#91=EDGE_CURVE('',#77,#78,#35,.T.);
#92=EDGE_CURVE('',#78,#75,#36,.T.);
#93=EDGE_CURVE('',#76,#79,#37,.T.);
#94=EDGE_CURVE('',#80,#79,#38,.T.);
#95=EDGE_CURVE('',#77,#80,#39,.T.);
#96=EDGE_CURVE('',#75,#81,#40,.T.);
#97=EDGE_CURVE('',#81,#82,#41,.T.);
#98=EDGE_CURVE('',#82,#83,#42,.T.);
#99=EDGE_CURVE('',#83,#84,#43,.T.);
#100=EDGE_CURVE('',#79,#84,#44,.T.);
#101=EDGE_CURVE('',#84,#85,#45,.T.);
#102=EDGE_CURVE('',#83,#86,#46,.T.);
#103=EDGE_CURVE('',#85,#86,#47,.T.);
#104=EDGE_CURVE('',#87,#82,#48,.T.);
#105=EDGE_CURVE('',#86,#87,#49,.T.);
#106=EDGE_CURVE('',#85,#80,#50,.T.);
#107=EDGE_CURVE('',#88,#87,#51,.T.);
#108=EDGE_CURVE('',#88,#78,#52,.T.);
#109=EDGE_CURVE('',#81,#88,#53,.T.);
#110=ORIENTED_EDGE('',*,*,#89,.T.);
#111=ORIENTED_EDGE('',*,*,#90,.T.);
#112=ORIENTED_EDGE('',*,*,#91,.T.);
#113=ORIENTED_EDGE('',*,*,#92,.T.);
#114=ORIENTED_EDGE('',*,*,#90,.F.);
#115=ORIENTED_EDGE('',*,*,#93,.T.);
#116=ORIENTED_EDGE('',*,*,#94,.F.);
#117=ORIENTED_EDGE('',*,*,#95,.F.);
#118=ORIENTED_EDGE('',*,*,#89,.F.);
#119=ORIENTED_EDGE('',*,*,#96,.T.);
#120=ORIENTED_EDGE('',*,*,#97,.T.);
#121=ORIENTED_EDGE('',*,*,#98,.T.);
#122=ORIENTED_EDGE('',*,*,#99,.T.);
#123=ORIENTED_EDGE('',*,*,#100,.F.);
#124=ORIENTED_EDGE('',*,*,#93,.F.);
#125=ORIENTED_EDGE('',*,*,#101,.F.);
#126=ORIENTED_EDGE('',*,*,#99,.F.);
#127=ORIENTED_EDGE('',*,*,#102,.T.);
#128=ORIENTED_EDGE('',*,*,#103,.F.);
#129=ORIENTED_EDGE('',*,*,#104,.F.);
#130=ORIENTED_EDGE('',*,*,#105,.F.);
#131=ORIENTED_EDGE('',*,*,#102,.F.);
#132=ORIENTED_EDGE('',*,*,#98,.F.);
#133=ORIENTED_EDGE('',*,*,#91,.F.);
#134=ORIENTED_EDGE('',*,*,#95,.T.);
#135=ORIENTED_EDGE('',*,*,#106,.F.);
#136=ORIENTED_EDGE('',*,*,#103,.T.);
#137=ORIENTED_EDGE('',*,*,#105,.T.);
#138=ORIENTED_EDGE('',*,*,#107,.F.);
#139=ORIENTED_EDGE('',*,*,#108,.T.);
#140=ORIENTED_EDGE('',*,*,#104,.T.);
#141=ORIENTED_EDGE('',*,*,#97,.F.);
#142=ORIENTED_EDGE('',*,*,#109,.T.);
#143=ORIENTED_EDGE('',*,*,#107,.T.);
#144=ORIENTED_EDGE('',*,*,#101,.T.);
#145=ORIENTED_EDGE('',*,*,#106,.T.);
#146=ORIENTED_EDGE('',*,*,#94,.T.);
#147=ORIENTED_EDGE('',*,*,#100,.T.);
#148=ORIENTED_EDGE('',*,*,#92,.F.);
#149=ORIENTED_EDGE('',*,*,#108,.F.);
#150=ORIENTED_EDGE('',*,*,#109,.F.);
#151=ORIENTED_EDGE('',*,*,#96,.F.);
#152=PLANE('',#190);
#153=PLANE('',#191);
#154=PLANE('',#192);
#155=PLANE('',#193);
#156=PLANE('',#194);
#157=PLANE('',#195);
#158=PLANE('',#196);
#159=PLANE('',#197);
#160=PLANE('',#198);
#161=ADVANCED_FACE('',(#15),#152,.T.);
#162=ADVANCED_FACE('',(#16),#153,.T.);
#163=ADVANCED_FACE('',(#17),#154,.T.);
#164=ADVANCED_FACE('',(#18),#155,.F.);
#165=ADVANCED_FACE('',(#19),#156,.F.);
#166=ADVANCED_FACE('',(#20),#157,.T.);
#167=ADVANCED_FACE('',(#21),#158,.T.);
#168=ADVANCED_FACE('',(#22),#159,.T.);
#169=ADVANCED_FACE('',(#23),#160,.F.);
#170=CLOSED_SHELL('',(#161,#162,#163,#164,#165,#166,#167,#168,#169));
#171=DERIVED_UNIT_ELEMENT(#173,1.);
#172=DERIVED_UNIT_ELEMENT(#290,3.);
#173=(
MASS_UNIT()
NAMED_UNIT(*)
SI_UNIT($,.GRAM.)
);
#174=DERIVED_UNIT((#171,#172));
#175=MEASURE_REPRESENTATION_ITEM('density measure',
POSITIVE_RATIO_MEASURE(2.7),#174);
#176=PROPERTY_DEFINITION_REPRESENTATION(#181,#178);
#177=PROPERTY_DEFINITION_REPRESENTATION(#182,#179);
#178=REPRESENTATION('material name',(#180),#287);
#179=REPRESENTATION('density',(#175),#287);
#180=DESCRIPTIVE_REPRESENTATION_ITEM('Aluminum 6061','Aluminum 6061');
#181=PROPERTY_DEFINITION('material property','material name',#297);
#182=PROPERTY_DEFINITION('material property','density of part',#297);
#183=DATE_TIME_ROLE('creation_date');
#184=CC_DESIGN_DATE_AND_TIME_ASSIGNMENT(#185,#183,(#297));
#185=DATE_AND_TIME(#186,#187);
#186=CALENDAR_DATE(2025,18,2);
#187=LOCAL_TIME(11,56,35.,#188);
#188=COORDINATED_UNIVERSAL_TIME_OFFSET(0,0,.BEHIND.);
#189=AXIS2_PLACEMENT_3D('placement',#240,#199,#200);
#190=AXIS2_PLACEMENT_3D('',#241,#201,#202);
#191=AXIS2_PLACEMENT_3D('',#250,#207,#208);
#192=AXIS2_PLACEMENT_3D('',#256,#212,#213);
#193=AXIS2_PLACEMENT_3D('',#266,#219,#220);
#194=AXIS2_PLACEMENT_3D('',#272,#224,#225);
#195=AXIS2_PLACEMENT_3D('',#276,#228,#229);
#196=AXIS2_PLACEMENT_3D('',#281,#233,#234);
#197=AXIS2_PLACEMENT_3D('',#283,#236,#237);
#198=AXIS2_PLACEMENT_3D('',#284,#238,#239);
#199=DIRECTION('axis',(0.,0.,1.));
#200=DIRECTION('refdir',(1.,0.,0.));
#201=DIRECTION('center_axis',(0.707106781186548,-0.707106781186547,1.04672830578918E-16));
#202=DIRECTION('ref_axis',(1.48029736616688E-16,0.,-1.));
#203=DIRECTION('',(0.707106781186547,0.707106781186548,-1.88411095042053E-16));
#204=DIRECTION('',(-1.48029736616688E-16,0.,1.));
#205=DIRECTION('',(-0.707106781186547,-0.707106781186548,9.42055475210265E-17));
#206=DIRECTION('',(1.48029736616688E-16,0.,-1.));
#207=DIRECTION('center_axis',(1.,0.,1.48029736616688E-16));
#208=DIRECTION('ref_axis',(1.48029736616688E-16,0.,-1.));
#209=DIRECTION('',(0.,1.,0.));
#210=DIRECTION('',(1.48029736616688E-16,0.,-1.));
#211=DIRECTION('',(0.,1.,0.));
#212=DIRECTION('center_axis',(-2.66453525910038E-16,0.,-1.));
#213=DIRECTION('ref_axis',(-1.,0.,2.66453525910038E-16));
#214=DIRECTION('',(-1.,0.,2.66453525910038E-16));
#215=DIRECTION('',(0.,1.,0.));
#216=DIRECTION('',(1.,0.,-2.66453525910038E-16));
#217=DIRECTION('',(0.,1.,0.));
#218=DIRECTION('',(-1.,0.,2.66453525910038E-16));
#219=DIRECTION('center_axis',(1.,0.,0.));
#220=DIRECTION('ref_axis',(0.,0.,1.));
#221=DIRECTION('',(0.,0.,1.));
#222=DIRECTION('',(0.,0.,1.));
#223=DIRECTION('',(0.,-1.,0.));
#224=DIRECTION('center_axis',(0.,-1.,0.));
#225=DIRECTION('ref_axis',(0.,0.,-1.));
#226=DIRECTION('',(-1.48029736616688E-16,0.,-1.));
#227=DIRECTION('',(-1.,0.,1.33226762955019E-16));
#228=DIRECTION('center_axis',(1.33226762955019E-16,0.,1.));
#229=DIRECTION('ref_axis',(1.,0.,-1.33226762955019E-16));
#230=DIRECTION('',(1.,0.,-1.33226762955019E-16));
#231=DIRECTION('',(0.,1.,0.));
#232=DIRECTION('',(1.,0.,-1.33226762955019E-16));
#233=DIRECTION('center_axis',(-1.,0.,1.48029736616688E-16));
#234=DIRECTION('ref_axis',(1.48029736616688E-16,0.,1.));
#235=DIRECTION('',(1.48029736616688E-16,0.,1.));
#236=DIRECTION('center_axis',(0.,1.,0.));
#237=DIRECTION('ref_axis',(0.,0.,1.));
#238=DIRECTION('center_axis',(0.,1.,0.));
#239=DIRECTION('ref_axis',(0.,0.,1.));
#240=CARTESIAN_POINT('',(0.,0.,0.));
#241=CARTESIAN_POINT('Origin',(11.5,1.,3.75));
#242=CARTESIAN_POINT('',(10.5,0.,-7.5));
#243=CARTESIAN_POINT('',(12.5,2.,-7.5));
#244=CARTESIAN_POINT('',(11.5,0.999999999999999,-7.5));
#245=CARTESIAN_POINT('',(12.5,2.,7.5));
#246=CARTESIAN_POINT('',(12.5,2.,3.75));
#247=CARTESIAN_POINT('',(10.5,0.,7.5));
#248=CARTESIAN_POINT('',(5.25,-5.25,7.5));
#249=CARTESIAN_POINT('',(10.5,0.,3.75));
#250=CARTESIAN_POINT('Origin',(12.5,0.,7.5));
#251=CARTESIAN_POINT('',(12.5,11.5,-7.5));
#252=CARTESIAN_POINT('',(12.5,0.,-7.5));
#253=CARTESIAN_POINT('',(12.5,11.5,7.5));
#254=CARTESIAN_POINT('',(12.5,11.5,7.5));
#255=CARTESIAN_POINT('',(12.5,0.,7.5));
#256=CARTESIAN_POINT('Origin',(12.5,0.,-7.5));
#257=CARTESIAN_POINT('',(-12.5,0.,-7.5));
#258=CARTESIAN_POINT('',(12.5,0.,-7.5));
#259=CARTESIAN_POINT('',(-12.5,9.5,-7.49999999999999));
#260=CARTESIAN_POINT('',(-12.5,0.,-7.5));
#261=CARTESIAN_POINT('',(-6.6,9.5,-7.5));
#262=CARTESIAN_POINT('',(1.475,9.5,-7.5));
#263=CARTESIAN_POINT('',(-6.6,11.5,-7.5));
#264=CARTESIAN_POINT('',(-6.6,5.75,-7.5));
#265=CARTESIAN_POINT('',(12.5,11.5,-7.5));
#266=CARTESIAN_POINT('Origin',(-6.6,11.5,-7.5));
#267=CARTESIAN_POINT('',(-6.6,11.5,7.5));
#268=CARTESIAN_POINT('',(-6.6,11.5,-3.75));
#269=CARTESIAN_POINT('',(-6.6,9.5,7.5));
#270=CARTESIAN_POINT('',(-6.6,9.5,7.5));
#271=CARTESIAN_POINT('',(-6.6,5.75,7.5));
#272=CARTESIAN_POINT('Origin',(-9.55,9.5,2.22044604925031E-15));
#273=CARTESIAN_POINT('',(-12.5,9.5,7.5));
#274=CARTESIAN_POINT('',(-12.5,9.5,-3.75));
#275=CARTESIAN_POINT('',(-11.025,9.5,7.5));
#276=CARTESIAN_POINT('Origin',(-12.5,0.,7.5));
#277=CARTESIAN_POINT('',(-12.5,11.5,7.5));
#278=CARTESIAN_POINT('',(-12.5,0.,7.5));
#279=CARTESIAN_POINT('',(-12.5,0.,7.5));
#280=CARTESIAN_POINT('',(-12.5,0.,7.5));
#281=CARTESIAN_POINT('Origin',(-12.5,0.,-7.5));
#282=CARTESIAN_POINT('',(-12.5,0.,-7.5));
#283=CARTESIAN_POINT('Origin',(2.22044604925031E-15,11.5,-1.11022302462516E-15));
#284=CARTESIAN_POINT('Origin',(2.22044604925031E-15,0.,-5.55111512312578E-16));
#285=UNCERTAINTY_MEASURE_WITH_UNIT(LENGTH_MEASURE(0.01),#289,
'DISTANCE_ACCURACY_VALUE',
'Maximum model space distance between geometric entities at asserted c
onnectivities');
#286=UNCERTAINTY_MEASURE_WITH_UNIT(LENGTH_MEASURE(0.01),#289,
'DISTANCE_ACCURACY_VALUE',
'Maximum model space distance between geometric entities at asserted c
onnectivities');
#287=(
GEOMETRIC_REPRESENTATION_CONTEXT(3)
GLOBAL_UNCERTAINTY_ASSIGNED_CONTEXT((#285))
GLOBAL_UNIT_ASSIGNED_CONTEXT((#289,#291,#292))
REPRESENTATION_CONTEXT('','3D')
);
#288=(
GEOMETRIC_REPRESENTATION_CONTEXT(3)
GLOBAL_UNCERTAINTY_ASSIGNED_CONTEXT((#286))
GLOBAL_UNIT_ASSIGNED_CONTEXT((#289,#291,#292))
REPRESENTATION_CONTEXT('','3D')
);
#289=(
LENGTH_UNIT()
NAMED_UNIT(*)
SI_UNIT(.MILLI.,.METRE.)
);
#290=(
LENGTH_UNIT()
NAMED_UNIT(*)
SI_UNIT(.CENTI.,.METRE.)
);
#291=(
NAMED_UNIT(*)
PLANE_ANGLE_UNIT()
SI_UNIT($,.RADIAN.)
);
#292=(
NAMED_UNIT(*)
SI_UNIT($,.STERADIAN.)
SOLID_ANGLE_UNIT()
);
#293=SHAPE_DEFINITION_REPRESENTATION(#294,#295);
#294=PRODUCT_DEFINITION_SHAPE('',$,#297);
#295=SHAPE_REPRESENTATION('',(#189),#287);
#296=DESIGN_CONTEXT('part definition',#301,'design');
#297=PRODUCT_DEFINITION('Spacer 9.5mm','Spacer 9.5mm',#298,#296);
#298=PRODUCT_DEFINITION_FORMATION('',$,#303);
#299=PRODUCT_RELATED_PRODUCT_CATEGORY('Spacer 9.5mm','Spacer 9.5mm',(#303));
#300=APPLICATION_PROTOCOL_DEFINITION('international standard',
'ap203_configuration_controlled_3d_design_of_mechanical_parts_and_asse
mblies_mim_lf',2004,#301);
#301=APPLICATION_CONTEXT(
'Configuration Controlled 3D Design of Mechanical Parts and Assemblies');
#302=MECHANICAL_CONTEXT('part definition',#301,'mechanical');
#303=PRODUCT('Spacer 9.5mm','Spacer 9.5mm',$,(#302));
#304=PRESENTATION_STYLE_ASSIGNMENT((#305));
#305=SURFACE_STYLE_USAGE(.BOTH.,#308);
#306=SURFACE_STYLE_RENDERING_WITH_PROPERTIES($,#312,(#307));
#307=SURFACE_STYLE_TRANSPARENT(0.);
#308=SURFACE_SIDE_STYLE('',(#309,#306));
#309=SURFACE_STYLE_FILL_AREA(#310);
#310=FILL_AREA_STYLE('',(#311));
#311=FILL_AREA_STYLE_COLOUR('',#312);
#312=COLOUR_RGB('',0.866666666666667,0.486274509803922,0.0588235294117647);
ENDSEC;
END-ISO-10303-21;
