ISO-10303-21;
HEADER;
/* Generated by software containing ST-Developer
 * from STEP Tools, Inc. (www.steptools.com) 
 */

FILE_DESCRIPTION(
/* description */ (''),
/* implementation_level */ '2;1');

FILE_NAME(
/* name */ 'D:\\PRJ\\EME\\70CM PA\\M-CAD\\Plisch load resistor spacer.
stp',
/* time_stamp */ '2025-02-19T12:39:10+01:00',
/* author */ ('Carsten Gr\X\F8n'),
/* organization */ (''),
/* preprocessor_version */ 'ST-DEVELOPER v18',
/* originating_system */ 'Autodesk Inventor 2020',
/* authorisation */ '');

FILE_SCHEMA (('CONFIG_CONTROL_DESIGN'));
ENDSEC;

DATA;
#10=MECHANICAL_DESIGN_GEOMETRIC_PRESENTATION_REPRESENTATION('',(#13),#287);
#11=SHAPE_REPRESENTATION_RELATIONSHIP('SRR','None',#294,#12);
#12=ADVANCED_BREP_SHAPE_REPRESENTATION('',(#14),#286);
#13=STYLED_ITEM('',(#303),#14);
#14=MANIFOLD_SOLID_BREP('Solid1',#163);
#15=FACE_BOUND('',#40,.T.);
#16=FACE_BOUND('',#41,.T.);
#17=FACE_BOUND('',#43,.T.);
#18=FACE_BOUND('',#44,.T.);
#19=PLANE('',#191);
#20=PLANE('',#192);
#21=PLANE('',#193);
#22=PLANE('',#194);
#23=PLANE('',#195);
#24=PLANE('',#196);
#25=FACE_OUTER_BOUND('',#33,.T.);
#26=FACE_OUTER_BOUND('',#34,.T.);
#27=FACE_OUTER_BOUND('',#35,.T.);
#28=FACE_OUTER_BOUND('',#36,.T.);
#29=FACE_OUTER_BOUND('',#37,.T.);
#30=FACE_OUTER_BOUND('',#38,.T.);
#31=FACE_OUTER_BOUND('',#39,.T.);
#32=FACE_OUTER_BOUND('',#42,.T.);
#33=EDGE_LOOP('',(#113,#114,#115,#116,#117));
#34=EDGE_LOOP('',(#118,#119,#120,#121,#122));
#35=EDGE_LOOP('',(#123,#124,#125,#126));
#36=EDGE_LOOP('',(#127,#128,#129,#130));
#37=EDGE_LOOP('',(#131,#132,#133,#134));
#38=EDGE_LOOP('',(#135,#136,#137,#138));
#39=EDGE_LOOP('',(#139,#140,#141,#142));
#40=EDGE_LOOP('',(#143,#144));
#41=EDGE_LOOP('',(#145,#146));
#42=EDGE_LOOP('',(#147,#148,#149,#150));
#43=EDGE_LOOP('',(#151));
#44=EDGE_LOOP('',(#152));
#45=LINE('',#248,#59);
#46=LINE('',#256,#60);
#47=LINE('',#261,#61);
#48=LINE('',#263,#62);
#49=LINE('',#265,#63);
#50=LINE('',#266,#64);
#51=LINE('',#269,#65);
#52=LINE('',#271,#66);
#53=LINE('',#272,#67);
#54=LINE('',#275,#68);
#55=LINE('',#277,#69);
#56=LINE('',#278,#70);
#57=LINE('',#280,#71);
#58=LINE('',#281,#72);
#59=VECTOR('',#205,2.);
#60=VECTOR('',#214,2.);
#61=VECTOR('',#219,10.);
#62=VECTOR('',#220,10.);
#63=VECTOR('',#221,10.);
#64=VECTOR('',#222,10.);
#65=VECTOR('',#225,10.);
#66=VECTOR('',#226,10.);
#67=VECTOR('',#227,10.);
#68=VECTOR('',#230,10.);
#69=VECTOR('',#231,10.);
#70=VECTOR('',#232,10.);
#71=VECTOR('',#235,10.);
#72=VECTOR('',#236,10.);
#73=CIRCLE('',#184,2.);
#74=CIRCLE('',#185,2.);
#75=CIRCLE('',#186,2.);
#76=CIRCLE('',#188,2.);
#77=CIRCLE('',#189,2.);
#78=CIRCLE('',#190,2.);
#79=VERTEX_POINT('',#243);
#80=VERTEX_POINT('',#244);
#81=VERTEX_POINT('',#247);
#82=VERTEX_POINT('',#251);
#83=VERTEX_POINT('',#252);
#84=VERTEX_POINT('',#255);
#85=VERTEX_POINT('',#259);
#86=VERTEX_POINT('',#260);
#87=VERTEX_POINT('',#262);
#88=VERTEX_POINT('',#264);
#89=VERTEX_POINT('',#268);
#90=VERTEX_POINT('',#270);
#91=VERTEX_POINT('',#274);
#92=VERTEX_POINT('',#276);
#93=EDGE_CURVE('',#79,#80,#73,.T.);
#94=EDGE_CURVE('',#80,#79,#74,.T.);
#95=EDGE_CURVE('',#80,#81,#45,.T.);
#96=EDGE_CURVE('',#81,#81,#75,.T.);
#97=EDGE_CURVE('',#82,#83,#76,.T.);
#98=EDGE_CURVE('',#83,#82,#77,.T.);
#99=EDGE_CURVE('',#83,#84,#46,.T.);
#100=EDGE_CURVE('',#84,#84,#78,.T.);
#101=EDGE_CURVE('',#85,#86,#47,.T.);
#102=EDGE_CURVE('',#86,#87,#48,.T.);
#103=EDGE_CURVE('',#88,#87,#49,.T.);
#104=EDGE_CURVE('',#85,#88,#50,.T.);
#105=EDGE_CURVE('',#89,#85,#51,.T.);
#106=EDGE_CURVE('',#90,#88,#52,.T.);
#107=EDGE_CURVE('',#89,#90,#53,.T.);
#108=EDGE_CURVE('',#91,#89,#54,.T.);
#109=EDGE_CURVE('',#92,#90,#55,.T.);
#110=EDGE_CURVE('',#91,#92,#56,.T.);
#111=EDGE_CURVE('',#86,#91,#57,.T.);
#112=EDGE_CURVE('',#87,#92,#58,.T.);
#113=ORIENTED_EDGE('',*,*,#93,.F.);
#114=ORIENTED_EDGE('',*,*,#94,.F.);
#115=ORIENTED_EDGE('',*,*,#95,.T.);
#116=ORIENTED_EDGE('',*,*,#96,.F.);
#117=ORIENTED_EDGE('',*,*,#95,.F.);
#118=ORIENTED_EDGE('',*,*,#97,.F.);
#119=ORIENTED_EDGE('',*,*,#98,.F.);
#120=ORIENTED_EDGE('',*,*,#99,.T.);
#121=ORIENTED_EDGE('',*,*,#100,.F.);
#122=ORIENTED_EDGE('',*,*,#99,.F.);
#123=ORIENTED_EDGE('',*,*,#101,.T.);
#124=ORIENTED_EDGE('',*,*,#102,.T.);
#125=ORIENTED_EDGE('',*,*,#103,.F.);
#126=ORIENTED_EDGE('',*,*,#104,.F.);
#127=ORIENTED_EDGE('',*,*,#105,.T.);
#128=ORIENTED_EDGE('',*,*,#104,.T.);
#129=ORIENTED_EDGE('',*,*,#106,.F.);
#130=ORIENTED_EDGE('',*,*,#107,.F.);
#131=ORIENTED_EDGE('',*,*,#108,.T.);
#132=ORIENTED_EDGE('',*,*,#107,.T.);
#133=ORIENTED_EDGE('',*,*,#109,.F.);
#134=ORIENTED_EDGE('',*,*,#110,.F.);
#135=ORIENTED_EDGE('',*,*,#111,.T.);
#136=ORIENTED_EDGE('',*,*,#110,.T.);
#137=ORIENTED_EDGE('',*,*,#112,.F.);
#138=ORIENTED_EDGE('',*,*,#102,.F.);
#139=ORIENTED_EDGE('',*,*,#112,.T.);
#140=ORIENTED_EDGE('',*,*,#109,.T.);
#141=ORIENTED_EDGE('',*,*,#106,.T.);
#142=ORIENTED_EDGE('',*,*,#103,.T.);
#143=ORIENTED_EDGE('',*,*,#93,.T.);
#144=ORIENTED_EDGE('',*,*,#94,.T.);
#145=ORIENTED_EDGE('',*,*,#97,.T.);
#146=ORIENTED_EDGE('',*,*,#98,.T.);
#147=ORIENTED_EDGE('',*,*,#111,.F.);
#148=ORIENTED_EDGE('',*,*,#101,.F.);
#149=ORIENTED_EDGE('',*,*,#105,.F.);
#150=ORIENTED_EDGE('',*,*,#108,.F.);
#151=ORIENTED_EDGE('',*,*,#96,.T.);
#152=ORIENTED_EDGE('',*,*,#100,.T.);
#153=CYLINDRICAL_SURFACE('',#183,2.);
#154=CYLINDRICAL_SURFACE('',#187,2.);
#155=ADVANCED_FACE('',(#25),#153,.F.);
#156=ADVANCED_FACE('',(#26),#154,.F.);
#157=ADVANCED_FACE('',(#27),#19,.T.);
#158=ADVANCED_FACE('',(#28),#20,.T.);
#159=ADVANCED_FACE('',(#29),#21,.T.);
#160=ADVANCED_FACE('',(#30),#22,.T.);
#161=ADVANCED_FACE('',(#31,#15,#16),#23,.T.);
#162=ADVANCED_FACE('',(#32,#17,#18),#24,.F.);
#163=CLOSED_SHELL('',(#155,#156,#157,#158,#159,#160,#161,#162));
#164=DERIVED_UNIT_ELEMENT(#166,1.);
#165=DERIVED_UNIT_ELEMENT(#289,3.);
#166=(
MASS_UNIT()
NAMED_UNIT(*)
SI_UNIT($,.GRAM.)
);
#167=DERIVED_UNIT((#164,#165));
#168=MEASURE_REPRESENTATION_ITEM('density measure',
POSITIVE_RATIO_MEASURE(1.),#167);
#169=PROPERTY_DEFINITION_REPRESENTATION(#174,#171);
#170=PROPERTY_DEFINITION_REPRESENTATION(#175,#172);
#171=REPRESENTATION('material name',(#173),#286);
#172=REPRESENTATION('density',(#168),#286);
#173=DESCRIPTIVE_REPRESENTATION_ITEM('Generic','Generic');
#174=PROPERTY_DEFINITION('material property','material name',#296);
#175=PROPERTY_DEFINITION('material property','density of part',#296);
#176=DATE_TIME_ROLE('creation_date');
#177=CC_DESIGN_DATE_AND_TIME_ASSIGNMENT(#178,#176,(#296));
#178=DATE_AND_TIME(#179,#180);
#179=CALENDAR_DATE(2025,19,2);
#180=LOCAL_TIME(11,35,33.,#181);
#181=COORDINATED_UNIVERSAL_TIME_OFFSET(0,0,.BEHIND.);
#182=AXIS2_PLACEMENT_3D('placement',#241,#197,#198);
#183=AXIS2_PLACEMENT_3D('',#242,#199,#200);
#184=AXIS2_PLACEMENT_3D('',#245,#201,#202);
#185=AXIS2_PLACEMENT_3D('',#246,#203,#204);
#186=AXIS2_PLACEMENT_3D('',#249,#206,#207);
#187=AXIS2_PLACEMENT_3D('',#250,#208,#209);
#188=AXIS2_PLACEMENT_3D('',#253,#210,#211);
#189=AXIS2_PLACEMENT_3D('',#254,#212,#213);
#190=AXIS2_PLACEMENT_3D('',#257,#215,#216);
#191=AXIS2_PLACEMENT_3D('',#258,#217,#218);
#192=AXIS2_PLACEMENT_3D('',#267,#223,#224);
#193=AXIS2_PLACEMENT_3D('',#273,#228,#229);
#194=AXIS2_PLACEMENT_3D('',#279,#233,#234);
#195=AXIS2_PLACEMENT_3D('',#282,#237,#238);
#196=AXIS2_PLACEMENT_3D('',#283,#239,#240);
#197=DIRECTION('axis',(0.,0.,1.));
#198=DIRECTION('refdir',(1.,0.,0.));
#199=DIRECTION('center_axis',(0.,1.,0.));
#200=DIRECTION('ref_axis',(1.,0.,0.));
#201=DIRECTION('center_axis',(0.,-1.,0.));
#202=DIRECTION('ref_axis',(1.,0.,0.));
#203=DIRECTION('center_axis',(0.,-1.,0.));
#204=DIRECTION('ref_axis',(1.,0.,0.));
#205=DIRECTION('',(0.,-1.,0.));
#206=DIRECTION('center_axis',(0.,1.,0.));
#207=DIRECTION('ref_axis',(1.,0.,0.));
#208=DIRECTION('center_axis',(0.,1.,0.));
#209=DIRECTION('ref_axis',(1.,0.,0.));
#210=DIRECTION('center_axis',(0.,-1.,0.));
#211=DIRECTION('ref_axis',(1.,0.,0.));
#212=DIRECTION('center_axis',(0.,-1.,0.));
#213=DIRECTION('ref_axis',(1.,0.,0.));
#214=DIRECTION('',(0.,-1.,0.));
#215=DIRECTION('center_axis',(0.,1.,0.));
#216=DIRECTION('ref_axis',(1.,0.,0.));
#217=DIRECTION('center_axis',(-1.,0.,0.));
#218=DIRECTION('ref_axis',(0.,0.,1.));
#219=DIRECTION('',(0.,0.,1.));
#220=DIRECTION('',(0.,1.,0.));
#221=DIRECTION('',(0.,0.,1.));
#222=DIRECTION('',(0.,1.,0.));
#223=DIRECTION('center_axis',(0.,0.,-1.));
#224=DIRECTION('ref_axis',(-1.,0.,0.));
#225=DIRECTION('',(-1.,0.,0.));
#226=DIRECTION('',(-1.,0.,0.));
#227=DIRECTION('',(0.,1.,0.));
#228=DIRECTION('center_axis',(1.,0.,0.));
#229=DIRECTION('ref_axis',(0.,0.,-1.));
#230=DIRECTION('',(0.,0.,-1.));
#231=DIRECTION('',(0.,0.,-1.));
#232=DIRECTION('',(0.,1.,0.));
#233=DIRECTION('center_axis',(0.,0.,1.));
#234=DIRECTION('ref_axis',(1.,0.,0.));
#235=DIRECTION('',(1.,0.,0.));
#236=DIRECTION('',(1.,0.,0.));
#237=DIRECTION('center_axis',(0.,1.,0.));
#238=DIRECTION('ref_axis',(0.,0.,1.));
#239=DIRECTION('center_axis',(0.,1.,0.));
#240=DIRECTION('ref_axis',(0.,0.,1.));
#241=CARTESIAN_POINT('',(0.,0.,0.));
#242=CARTESIAN_POINT('Origin',(0.,-21.3265414015354,7.));
#243=CARTESIAN_POINT('',(2.,2.8,7.));
#244=CARTESIAN_POINT('',(-2.,2.8,7.));
#245=CARTESIAN_POINT('Origin',(0.,2.8,7.));
#246=CARTESIAN_POINT('Origin',(0.,2.8,7.));
#247=CARTESIAN_POINT('',(-2.,1.66533453693773E-15,7.));
#248=CARTESIAN_POINT('',(-2.,-21.3265414015354,7.));
#249=CARTESIAN_POINT('Origin',(0.,0.,7.));
#250=CARTESIAN_POINT('Origin',(0.,-21.3265414015354,-7.));
#251=CARTESIAN_POINT('',(2.,2.8,-7.));
#252=CARTESIAN_POINT('',(-2.,2.8,-7.));
#253=CARTESIAN_POINT('Origin',(0.,2.8,-7.));
#254=CARTESIAN_POINT('Origin',(0.,2.8,-7.));
#255=CARTESIAN_POINT('',(-2.,1.66533453693773E-15,-7.));
#256=CARTESIAN_POINT('',(-2.,-21.3265414015354,-7.));
#257=CARTESIAN_POINT('Origin',(0.,0.,-7.));
#258=CARTESIAN_POINT('Origin',(-4.75,0.,-11.));
#259=CARTESIAN_POINT('',(-4.75,0.,-11.));
#260=CARTESIAN_POINT('',(-4.75,0.,11.));
#261=CARTESIAN_POINT('',(-4.75,0.,-11.));
#262=CARTESIAN_POINT('',(-4.75,2.8,11.));
#263=CARTESIAN_POINT('',(-4.75,0.,11.));
#264=CARTESIAN_POINT('',(-4.75,2.8,-11.));
#265=CARTESIAN_POINT('',(-4.75,2.8,-11.));
#266=CARTESIAN_POINT('',(-4.75,0.,-11.));
#267=CARTESIAN_POINT('Origin',(4.75,0.,-11.));
#268=CARTESIAN_POINT('',(4.75,0.,-11.));
#269=CARTESIAN_POINT('',(4.75,0.,-11.));
#270=CARTESIAN_POINT('',(4.75,2.8,-11.));
#271=CARTESIAN_POINT('',(4.75,2.8,-11.));
#272=CARTESIAN_POINT('',(4.75,0.,-11.));
#273=CARTESIAN_POINT('Origin',(4.75,0.,11.));
#274=CARTESIAN_POINT('',(4.75,0.,11.));
#275=CARTESIAN_POINT('',(4.75,0.,11.));
#276=CARTESIAN_POINT('',(4.75,2.8,11.));
#277=CARTESIAN_POINT('',(4.75,2.8,11.));
#278=CARTESIAN_POINT('',(4.75,0.,11.));
#279=CARTESIAN_POINT('Origin',(-4.75,0.,11.));
#280=CARTESIAN_POINT('',(-4.75,0.,11.));
#281=CARTESIAN_POINT('',(-4.75,2.8,11.));
#282=CARTESIAN_POINT('Origin',(0.,2.8,0.));
#283=CARTESIAN_POINT('Origin',(0.,0.,0.));
#284=UNCERTAINTY_MEASURE_WITH_UNIT(LENGTH_MEASURE(0.01),#288,
'DISTANCE_ACCURACY_VALUE',
'Maximum model space distance between geometric entities at asserted c
onnectivities');
#285=UNCERTAINTY_MEASURE_WITH_UNIT(LENGTH_MEASURE(0.01),#288,
'DISTANCE_ACCURACY_VALUE',
'Maximum model space distance between geometric entities at asserted c
onnectivities');
#286=(
GEOMETRIC_REPRESENTATION_CONTEXT(3)
GLOBAL_UNCERTAINTY_ASSIGNED_CONTEXT((#284))
GLOBAL_UNIT_ASSIGNED_CONTEXT((#288,#290,#291))
REPRESENTATION_CONTEXT('','3D')
);
#287=(
GEOMETRIC_REPRESENTATION_CONTEXT(3)
GLOBAL_UNCERTAINTY_ASSIGNED_CONTEXT((#285))
GLOBAL_UNIT_ASSIGNED_CONTEXT((#288,#290,#291))
REPRESENTATION_CONTEXT('','3D')
);
#288=(
LENGTH_UNIT()
NAMED_UNIT(*)
SI_UNIT(.MILLI.,.METRE.)
);
#289=(
LENGTH_UNIT()
NAMED_UNIT(*)
SI_UNIT(.CENTI.,.METRE.)
);
#290=(
NAMED_UNIT(*)
PLANE_ANGLE_UNIT()
SI_UNIT($,.RADIAN.)
);
#291=(
NAMED_UNIT(*)
SI_UNIT($,.STERADIAN.)
SOLID_ANGLE_UNIT()
);
#292=SHAPE_DEFINITION_REPRESENTATION(#293,#294);
#293=PRODUCT_DEFINITION_SHAPE('',$,#296);
#294=SHAPE_REPRESENTATION('',(#182),#286);
#295=DESIGN_CONTEXT('part definition',#300,'design');
#296=PRODUCT_DEFINITION('Plisch load resistor spacer',
'Plisch load resistor spacer',#297,#295);
#297=PRODUCT_DEFINITION_FORMATION('',$,#302);
#298=PRODUCT_RELATED_PRODUCT_CATEGORY('Plisch load resistor spacer',
'Plisch load resistor spacer',(#302));
#299=APPLICATION_PROTOCOL_DEFINITION('international standard',
'ap203_configuration_controlled_3d_design_of_mechanical_parts_and_asse
mblies_mim_lf',2004,#300);
#300=APPLICATION_CONTEXT(
'Configuration Controlled 3D Design of Mechanical Parts and Assemblies');
#301=MECHANICAL_CONTEXT('part definition',#300,'mechanical');
#302=PRODUCT('Plisch load resistor spacer',
'Plisch load resistor spacer',$,(#301));
#303=PRESENTATION_STYLE_ASSIGNMENT((#304));
#304=SURFACE_STYLE_USAGE(.BOTH.,#307);
#305=SURFACE_STYLE_RENDERING_WITH_PROPERTIES($,#311,(#306));
#306=SURFACE_STYLE_TRANSPARENT(0.);
#307=SURFACE_SIDE_STYLE('',(#308,#305));
#308=SURFACE_STYLE_FILL_AREA(#309);
#309=FILL_AREA_STYLE('',(#310));
#310=FILL_AREA_STYLE_COLOUR('',#311);
#311=COLOUR_RGB('',0.749019607843137,0.749019607843137,0.749019607843137);
ENDSEC;
END-ISO-10303-21;
