ISO-10303-21;
HEADER;
/* Generated by software containing ST-Developer
 * from STEP Tools, Inc. (www.steptools.com) 
 */

FILE_DESCRIPTION(
/* description */ (''),
/* implementation_level */ '2;1');

FILE_NAME(
/* name */ 'D:\\PRJ\\EME\\70CM PA\\M-CAD\\Plisch Output clamp.stp',
/* time_stamp */ '2025-03-10T16:28:11+01:00',
/* author */ ('Carsten Gr\X\F8n'),
/* organization */ (''),
/* preprocessor_version */ 'ST-DEVELOPER v18',
/* originating_system */ 'Autodesk Inventor 2020',
/* authorisation */ '');

FILE_SCHEMA (('CONFIG_CONTROL_DESIGN'));
ENDSEC;

DATA;
#10=MECHANICAL_DESIGN_GEOMETRIC_PRESENTATION_REPRESENTATION('',(#13),#495);
#11=SHAPE_REPRESENTATION_RELATIONSHIP('SRR','None',#502,#12);
#12=ADVANCED_BREP_SHAPE_REPRESENTATION('',(#14),#494);
#13=STYLED_ITEM('',(#511),#14);
#14=MANIFOLD_SOLID_BREP('Solid1',#279);
#15=FACE_BOUND('',#42,.T.);
#16=FACE_BOUND('',#43,.T.);
#17=FACE_BOUND('',#49,.T.);
#18=FACE_BOUND('',#57,.T.);
#19=PLANE('',#302);
#20=PLANE('',#308);
#21=PLANE('',#314);
#22=PLANE('',#316);
#23=PLANE('',#321);
#24=PLANE('',#327);
#25=PLANE('',#328);
#26=FACE_OUTER_BOUND('',#40,.T.);
#27=FACE_OUTER_BOUND('',#41,.T.);
#28=FACE_OUTER_BOUND('',#44,.T.);
#29=FACE_OUTER_BOUND('',#45,.T.);
#30=FACE_OUTER_BOUND('',#46,.T.);
#31=FACE_OUTER_BOUND('',#47,.T.);
#32=FACE_OUTER_BOUND('',#48,.T.);
#33=FACE_OUTER_BOUND('',#50,.T.);
#34=FACE_OUTER_BOUND('',#51,.T.);
#35=FACE_OUTER_BOUND('',#52,.T.);
#36=FACE_OUTER_BOUND('',#53,.T.);
#37=FACE_OUTER_BOUND('',#54,.T.);
#38=FACE_OUTER_BOUND('',#55,.T.);
#39=FACE_OUTER_BOUND('',#56,.T.);
#40=EDGE_LOOP('',(#182,#183,#184,#185));
#41=EDGE_LOOP('',(#186,#187,#188,#189,#190,#191,#192,#193));
#42=EDGE_LOOP('',(#194));
#43=EDGE_LOOP('',(#195));
#44=EDGE_LOOP('',(#196,#197,#198,#199,#200,#201));
#45=EDGE_LOOP('',(#202,#203,#204,#205));
#46=EDGE_LOOP('',(#206,#207,#208,#209));
#47=EDGE_LOOP('',(#210,#211,#212,#213,#214,#215));
#48=EDGE_LOOP('',(#216,#217,#218,#219,#220,#221));
#49=EDGE_LOOP('',(#222,#223));
#50=EDGE_LOOP('',(#224,#225,#226,#227));
#51=EDGE_LOOP('',(#228,#229,#230,#231));
#52=EDGE_LOOP('',(#232,#233,#234,#235));
#53=EDGE_LOOP('',(#236,#237,#238,#239,#240));
#54=EDGE_LOOP('',(#241,#242,#243,#244,#245));
#55=EDGE_LOOP('',(#246,#247,#248,#249));
#56=EDGE_LOOP('',(#250,#251,#252,#253,#254,#255));
#57=EDGE_LOOP('',(#256,#257));
#58=LINE('',#419,#80);
#59=LINE('',#422,#81);
#60=LINE('',#425,#82);
#61=LINE('',#429,#83);
#62=LINE('',#433,#84);
#63=LINE('',#436,#85);
#64=LINE('',#443,#86);
#65=LINE('',#447,#87);
#66=LINE('',#448,#88);
#67=LINE('',#452,#89);
#68=LINE('',#457,#90);
#69=LINE('',#458,#91);
#70=LINE('',#461,#92);
#71=LINE('',#465,#93);
#72=LINE('',#466,#94);
#73=LINE('',#468,#95);
#74=LINE('',#469,#96);
#75=LINE('',#477,#97);
#76=LINE('',#479,#98);
#77=LINE('',#481,#99);
#78=LINE('',#487,#100);
#79=LINE('',#489,#101);
#80=VECTOR('',#335,10.);
#81=VECTOR('',#338,10.);
#82=VECTOR('',#341,10.);
#83=VECTOR('',#344,10.);
#84=VECTOR('',#347,10.);
#85=VECTOR('',#350,10.);
#86=VECTOR('',#357,10.);
#87=VECTOR('',#360,10.);
#88=VECTOR('',#361,10.);
#89=VECTOR('',#366,10.);
#90=VECTOR('',#371,10.);
#91=VECTOR('',#372,10.);
#92=VECTOR('',#375,10.);
#93=VECTOR('',#378,10.);
#94=VECTOR('',#379,10.);
#95=VECTOR('',#382,10.);
#96=VECTOR('',#383,10.);
#97=VECTOR('',#392,10.);
#98=VECTOR('',#395,10.);
#99=VECTOR('',#398,10.);
#100=VECTOR('',#405,2.1);
#101=VECTOR('',#408,2.1);
#102=CIRCLE('',#300,2.);
#103=CIRCLE('',#301,2.);
#104=CIRCLE('',#303,2.);
#105=CIRCLE('',#304,2.);
#106=CIRCLE('',#305,2.);
#107=CIRCLE('',#306,2.1);
#108=CIRCLE('',#307,2.1);
#109=CIRCLE('',#309,3.);
#110=CIRCLE('',#311,2.);
#111=CIRCLE('',#313,2.);
#112=CIRCLE('',#315,3.);
#113=CIRCLE('',#317,2.1);
#114=CIRCLE('',#318,2.1);
#115=CIRCLE('',#320,2.);
#116=CIRCLE('',#324,2.1);
#117=CIRCLE('',#325,2.1);
#118=VERTEX_POINT('',#415);
#119=VERTEX_POINT('',#416);
#120=VERTEX_POINT('',#418);
#121=VERTEX_POINT('',#420);
#122=VERTEX_POINT('',#424);
#123=VERTEX_POINT('',#426);
#124=VERTEX_POINT('',#428);
#125=VERTEX_POINT('',#430);
#126=VERTEX_POINT('',#432);
#127=VERTEX_POINT('',#434);
#128=VERTEX_POINT('',#437);
#129=VERTEX_POINT('',#439);
#130=VERTEX_POINT('',#442);
#131=VERTEX_POINT('',#444);
#132=VERTEX_POINT('',#446);
#133=VERTEX_POINT('',#450);
#134=VERTEX_POINT('',#454);
#135=VERTEX_POINT('',#455);
#136=VERTEX_POINT('',#460);
#137=VERTEX_POINT('',#462);
#138=VERTEX_POINT('',#464);
#139=VERTEX_POINT('',#470);
#140=VERTEX_POINT('',#471);
#141=VERTEX_POINT('',#475);
#142=VERTEX_POINT('',#483);
#143=VERTEX_POINT('',#484);
#144=EDGE_CURVE('',#118,#119,#102,.T.);
#145=EDGE_CURVE('',#119,#120,#58,.T.);
#146=EDGE_CURVE('',#120,#121,#103,.T.);
#147=EDGE_CURVE('',#121,#118,#59,.T.);
#148=EDGE_CURVE('',#122,#120,#60,.T.);
#149=EDGE_CURVE('',#123,#122,#104,.T.);
#150=EDGE_CURVE('',#124,#123,#61,.T.);
#151=EDGE_CURVE('',#125,#124,#105,.T.);
#152=EDGE_CURVE('',#126,#125,#62,.T.);
#153=EDGE_CURVE('',#127,#126,#106,.T.);
#154=EDGE_CURVE('',#121,#127,#63,.T.);
#155=EDGE_CURVE('',#128,#128,#107,.T.);
#156=EDGE_CURVE('',#129,#129,#108,.T.);
#157=EDGE_CURVE('',#130,#119,#64,.T.);
#158=EDGE_CURVE('',#130,#131,#109,.T.);
#159=EDGE_CURVE('',#132,#131,#65,.T.);
#160=EDGE_CURVE('',#122,#132,#66,.T.);
#161=EDGE_CURVE('',#132,#133,#110,.T.);
#162=EDGE_CURVE('',#133,#123,#67,.T.);
#163=EDGE_CURVE('',#134,#135,#111,.T.);
#164=EDGE_CURVE('',#135,#125,#68,.T.);
#165=EDGE_CURVE('',#124,#134,#69,.T.);
#166=EDGE_CURVE('',#136,#135,#70,.T.);
#167=EDGE_CURVE('',#136,#137,#112,.T.);
#168=EDGE_CURVE('',#138,#137,#71,.T.);
#169=EDGE_CURVE('',#126,#138,#72,.T.);
#170=EDGE_CURVE('',#131,#136,#73,.T.);
#171=EDGE_CURVE('',#134,#133,#74,.T.);
#172=EDGE_CURVE('',#139,#140,#113,.T.);
#173=EDGE_CURVE('',#140,#139,#114,.T.);
#174=EDGE_CURVE('',#138,#141,#115,.T.);
#175=EDGE_CURVE('',#141,#127,#75,.T.);
#176=EDGE_CURVE('',#118,#141,#76,.T.);
#177=EDGE_CURVE('',#137,#130,#77,.T.);
#178=EDGE_CURVE('',#142,#143,#116,.T.);
#179=EDGE_CURVE('',#143,#142,#117,.T.);
#180=EDGE_CURVE('',#143,#129,#78,.T.);
#181=EDGE_CURVE('',#140,#128,#79,.T.);
#182=ORIENTED_EDGE('',*,*,#144,.T.);
#183=ORIENTED_EDGE('',*,*,#145,.T.);
#184=ORIENTED_EDGE('',*,*,#146,.T.);
#185=ORIENTED_EDGE('',*,*,#147,.T.);
#186=ORIENTED_EDGE('',*,*,#146,.F.);
#187=ORIENTED_EDGE('',*,*,#148,.F.);
#188=ORIENTED_EDGE('',*,*,#149,.F.);
#189=ORIENTED_EDGE('',*,*,#150,.F.);
#190=ORIENTED_EDGE('',*,*,#151,.F.);
#191=ORIENTED_EDGE('',*,*,#152,.F.);
#192=ORIENTED_EDGE('',*,*,#153,.F.);
#193=ORIENTED_EDGE('',*,*,#154,.F.);
#194=ORIENTED_EDGE('',*,*,#155,.T.);
#195=ORIENTED_EDGE('',*,*,#156,.T.);
#196=ORIENTED_EDGE('',*,*,#145,.F.);
#197=ORIENTED_EDGE('',*,*,#157,.F.);
#198=ORIENTED_EDGE('',*,*,#158,.T.);
#199=ORIENTED_EDGE('',*,*,#159,.F.);
#200=ORIENTED_EDGE('',*,*,#160,.F.);
#201=ORIENTED_EDGE('',*,*,#148,.T.);
#202=ORIENTED_EDGE('',*,*,#161,.T.);
#203=ORIENTED_EDGE('',*,*,#162,.T.);
#204=ORIENTED_EDGE('',*,*,#149,.T.);
#205=ORIENTED_EDGE('',*,*,#160,.T.);
#206=ORIENTED_EDGE('',*,*,#163,.T.);
#207=ORIENTED_EDGE('',*,*,#164,.T.);
#208=ORIENTED_EDGE('',*,*,#151,.T.);
#209=ORIENTED_EDGE('',*,*,#165,.T.);
#210=ORIENTED_EDGE('',*,*,#164,.F.);
#211=ORIENTED_EDGE('',*,*,#166,.F.);
#212=ORIENTED_EDGE('',*,*,#167,.T.);
#213=ORIENTED_EDGE('',*,*,#168,.F.);
#214=ORIENTED_EDGE('',*,*,#169,.F.);
#215=ORIENTED_EDGE('',*,*,#152,.T.);
#216=ORIENTED_EDGE('',*,*,#161,.F.);
#217=ORIENTED_EDGE('',*,*,#159,.T.);
#218=ORIENTED_EDGE('',*,*,#170,.T.);
#219=ORIENTED_EDGE('',*,*,#166,.T.);
#220=ORIENTED_EDGE('',*,*,#163,.F.);
#221=ORIENTED_EDGE('',*,*,#171,.T.);
#222=ORIENTED_EDGE('',*,*,#172,.T.);
#223=ORIENTED_EDGE('',*,*,#173,.T.);
#224=ORIENTED_EDGE('',*,*,#174,.T.);
#225=ORIENTED_EDGE('',*,*,#175,.T.);
#226=ORIENTED_EDGE('',*,*,#153,.T.);
#227=ORIENTED_EDGE('',*,*,#169,.T.);
#228=ORIENTED_EDGE('',*,*,#147,.F.);
#229=ORIENTED_EDGE('',*,*,#154,.T.);
#230=ORIENTED_EDGE('',*,*,#175,.F.);
#231=ORIENTED_EDGE('',*,*,#176,.F.);
#232=ORIENTED_EDGE('',*,*,#158,.F.);
#233=ORIENTED_EDGE('',*,*,#177,.F.);
#234=ORIENTED_EDGE('',*,*,#167,.F.);
#235=ORIENTED_EDGE('',*,*,#170,.F.);
#236=ORIENTED_EDGE('',*,*,#178,.F.);
#237=ORIENTED_EDGE('',*,*,#179,.F.);
#238=ORIENTED_EDGE('',*,*,#180,.T.);
#239=ORIENTED_EDGE('',*,*,#156,.F.);
#240=ORIENTED_EDGE('',*,*,#180,.F.);
#241=ORIENTED_EDGE('',*,*,#172,.F.);
#242=ORIENTED_EDGE('',*,*,#173,.F.);
#243=ORIENTED_EDGE('',*,*,#181,.T.);
#244=ORIENTED_EDGE('',*,*,#155,.F.);
#245=ORIENTED_EDGE('',*,*,#181,.F.);
#246=ORIENTED_EDGE('',*,*,#162,.F.);
#247=ORIENTED_EDGE('',*,*,#171,.F.);
#248=ORIENTED_EDGE('',*,*,#165,.F.);
#249=ORIENTED_EDGE('',*,*,#150,.T.);
#250=ORIENTED_EDGE('',*,*,#144,.F.);
#251=ORIENTED_EDGE('',*,*,#176,.T.);
#252=ORIENTED_EDGE('',*,*,#174,.F.);
#253=ORIENTED_EDGE('',*,*,#168,.T.);
#254=ORIENTED_EDGE('',*,*,#177,.T.);
#255=ORIENTED_EDGE('',*,*,#157,.T.);
#256=ORIENTED_EDGE('',*,*,#178,.T.);
#257=ORIENTED_EDGE('',*,*,#179,.T.);
#258=CYLINDRICAL_SURFACE('',#299,2.);
#259=CYLINDRICAL_SURFACE('',#310,2.);
#260=CYLINDRICAL_SURFACE('',#312,2.);
#261=CYLINDRICAL_SURFACE('',#319,2.);
#262=CYLINDRICAL_SURFACE('',#322,3.);
#263=CYLINDRICAL_SURFACE('',#323,2.1);
#264=CYLINDRICAL_SURFACE('',#326,2.1);
#265=ADVANCED_FACE('',(#26),#258,.T.);
#266=ADVANCED_FACE('',(#27,#15,#16),#19,.F.);
#267=ADVANCED_FACE('',(#28),#20,.T.);
#268=ADVANCED_FACE('',(#29),#259,.T.);
#269=ADVANCED_FACE('',(#30),#260,.T.);
#270=ADVANCED_FACE('',(#31),#21,.T.);
#271=ADVANCED_FACE('',(#32,#17),#22,.T.);
#272=ADVANCED_FACE('',(#33),#261,.T.);
#273=ADVANCED_FACE('',(#34),#23,.T.);
#274=ADVANCED_FACE('',(#35),#262,.F.);
#275=ADVANCED_FACE('',(#36),#263,.F.);
#276=ADVANCED_FACE('',(#37),#264,.F.);
#277=ADVANCED_FACE('',(#38),#24,.T.);
#278=ADVANCED_FACE('',(#39,#18),#25,.T.);
#279=CLOSED_SHELL('',(#265,#266,#267,#268,#269,#270,#271,#272,#273,#274,
#275,#276,#277,#278));
#280=DERIVED_UNIT_ELEMENT(#282,1.);
#281=DERIVED_UNIT_ELEMENT(#497,3.);
#282=(
MASS_UNIT()
NAMED_UNIT(*)
SI_UNIT($,.GRAM.)
);
#283=DERIVED_UNIT((#280,#281));
#284=MEASURE_REPRESENTATION_ITEM('density measure',
POSITIVE_RATIO_MEASURE(1.),#283);
#285=PROPERTY_DEFINITION_REPRESENTATION(#290,#287);
#286=PROPERTY_DEFINITION_REPRESENTATION(#291,#288);
#287=REPRESENTATION('material name',(#289),#494);
#288=REPRESENTATION('density',(#284),#494);
#289=DESCRIPTIVE_REPRESENTATION_ITEM('Generic','Generic');
#290=PROPERTY_DEFINITION('material property','material name',#504);
#291=PROPERTY_DEFINITION('material property','density of part',#504);
#292=DATE_TIME_ROLE('creation_date');
#293=CC_DESIGN_DATE_AND_TIME_ASSIGNMENT(#294,#292,(#504));
#294=DATE_AND_TIME(#295,#296);
#295=CALENDAR_DATE(2025,18,2);
#296=LOCAL_TIME(16,25,12.,#297);
#297=COORDINATED_UNIVERSAL_TIME_OFFSET(0,0,.BEHIND.);
#298=AXIS2_PLACEMENT_3D('placement',#413,#329,#330);
#299=AXIS2_PLACEMENT_3D('',#414,#331,#332);
#300=AXIS2_PLACEMENT_3D('',#417,#333,#334);
#301=AXIS2_PLACEMENT_3D('',#421,#336,#337);
#302=AXIS2_PLACEMENT_3D('',#423,#339,#340);
#303=AXIS2_PLACEMENT_3D('',#427,#342,#343);
#304=AXIS2_PLACEMENT_3D('',#431,#345,#346);
#305=AXIS2_PLACEMENT_3D('',#435,#348,#349);
#306=AXIS2_PLACEMENT_3D('',#438,#351,#352);
#307=AXIS2_PLACEMENT_3D('',#440,#353,#354);
#308=AXIS2_PLACEMENT_3D('',#441,#355,#356);
#309=AXIS2_PLACEMENT_3D('',#445,#358,#359);
#310=AXIS2_PLACEMENT_3D('',#449,#362,#363);
#311=AXIS2_PLACEMENT_3D('',#451,#364,#365);
#312=AXIS2_PLACEMENT_3D('',#453,#367,#368);
#313=AXIS2_PLACEMENT_3D('',#456,#369,#370);
#314=AXIS2_PLACEMENT_3D('',#459,#373,#374);
#315=AXIS2_PLACEMENT_3D('',#463,#376,#377);
#316=AXIS2_PLACEMENT_3D('',#467,#380,#381);
#317=AXIS2_PLACEMENT_3D('',#472,#384,#385);
#318=AXIS2_PLACEMENT_3D('',#473,#386,#387);
#319=AXIS2_PLACEMENT_3D('',#474,#388,#389);
#320=AXIS2_PLACEMENT_3D('',#476,#390,#391);
#321=AXIS2_PLACEMENT_3D('',#478,#393,#394);
#322=AXIS2_PLACEMENT_3D('',#480,#396,#397);
#323=AXIS2_PLACEMENT_3D('',#482,#399,#400);
#324=AXIS2_PLACEMENT_3D('',#485,#401,#402);
#325=AXIS2_PLACEMENT_3D('',#486,#403,#404);
#326=AXIS2_PLACEMENT_3D('',#488,#406,#407);
#327=AXIS2_PLACEMENT_3D('',#490,#409,#410);
#328=AXIS2_PLACEMENT_3D('',#491,#411,#412);
#329=DIRECTION('axis',(0.,0.,1.));
#330=DIRECTION('refdir',(1.,0.,0.));
#331=DIRECTION('center_axis',(0.,1.,0.));
#332=DIRECTION('ref_axis',(-0.707106781186548,0.,0.707106781186547));
#333=DIRECTION('center_axis',(0.,-1.,0.));
#334=DIRECTION('ref_axis',(-0.707106781186548,0.,0.707106781186547));
#335=DIRECTION('',(0.,-1.,0.));
#336=DIRECTION('center_axis',(0.,1.,0.));
#337=DIRECTION('ref_axis',(-0.707106781186548,0.,0.707106781186547));
#338=DIRECTION('',(0.,1.,0.));
#339=DIRECTION('center_axis',(0.,1.,0.));
#340=DIRECTION('ref_axis',(0.,0.,1.));
#341=DIRECTION('',(2.22044604925031E-16,0.,1.));
#342=DIRECTION('center_axis',(0.,1.,0.));
#343=DIRECTION('ref_axis',(-0.707106781186548,0.,-0.707106781186547));
#344=DIRECTION('',(-1.,0.,1.11022302462516E-16));
#345=DIRECTION('center_axis',(0.,1.,0.));
#346=DIRECTION('ref_axis',(0.707106781186547,0.,-0.707106781186548));
#347=DIRECTION('',(-7.40148683083438E-17,0.,-1.));
#348=DIRECTION('center_axis',(0.,1.,0.));
#349=DIRECTION('ref_axis',(0.707106781186548,0.,0.707106781186547));
#350=DIRECTION('',(1.,0.,-1.11022302462516E-16));
#351=DIRECTION('center_axis',(0.,1.,0.));
#352=DIRECTION('ref_axis',(1.,0.,0.));
#353=DIRECTION('center_axis',(0.,1.,0.));
#354=DIRECTION('ref_axis',(1.,0.,0.));
#355=DIRECTION('center_axis',(-1.,0.,2.22044604925031E-16));
#356=DIRECTION('ref_axis',(2.22044604925031E-16,0.,1.));
#357=DIRECTION('',(2.22044604925031E-16,0.,1.));
#358=DIRECTION('center_axis',(1.,0.,-2.22044604925031E-16));
#359=DIRECTION('ref_axis',(7.40148683083438E-17,0.,1.));
#360=DIRECTION('',(2.22044604925031E-16,0.,1.));
#361=DIRECTION('',(0.,1.,0.));
#362=DIRECTION('center_axis',(0.,1.,0.));
#363=DIRECTION('ref_axis',(-0.707106781186548,0.,-0.707106781186547));
#364=DIRECTION('center_axis',(0.,-1.,0.));
#365=DIRECTION('ref_axis',(-0.707106781186548,0.,-0.707106781186547));
#366=DIRECTION('',(0.,-1.,0.));
#367=DIRECTION('center_axis',(0.,1.,0.));
#368=DIRECTION('ref_axis',(0.707106781186547,0.,-0.707106781186548));
#369=DIRECTION('center_axis',(0.,-1.,0.));
#370=DIRECTION('ref_axis',(0.707106781186547,0.,-0.707106781186548));
#371=DIRECTION('',(0.,-1.,0.));
#372=DIRECTION('',(0.,1.,0.));
#373=DIRECTION('center_axis',(1.,0.,-7.40148683083438E-17));
#374=DIRECTION('ref_axis',(-7.40148683083438E-17,0.,-1.));
#375=DIRECTION('',(-7.40148683083438E-17,0.,-1.));
#376=DIRECTION('center_axis',(-1.,0.,7.40148683083438E-17));
#377=DIRECTION('ref_axis',(7.40148683083438E-17,0.,1.));
#378=DIRECTION('',(-7.40148683083438E-17,0.,-1.));
#379=DIRECTION('',(0.,1.,0.));
#380=DIRECTION('center_axis',(0.,1.,0.));
#381=DIRECTION('ref_axis',(0.,0.,1.));
#382=DIRECTION('',(1.,0.,-7.40148683083438E-17));
#383=DIRECTION('',(-1.,0.,1.11022302462516E-16));
#384=DIRECTION('center_axis',(0.,-1.,0.));
#385=DIRECTION('ref_axis',(1.,0.,0.));
#386=DIRECTION('center_axis',(0.,-1.,0.));
#387=DIRECTION('ref_axis',(1.,0.,0.));
#388=DIRECTION('center_axis',(0.,1.,0.));
#389=DIRECTION('ref_axis',(0.707106781186548,0.,0.707106781186547));
#390=DIRECTION('center_axis',(0.,-1.,0.));
#391=DIRECTION('ref_axis',(0.707106781186548,0.,0.707106781186547));
#392=DIRECTION('',(0.,-1.,0.));
#393=DIRECTION('center_axis',(1.11022302462516E-16,0.,1.));
#394=DIRECTION('ref_axis',(1.,0.,-1.11022302462516E-16));
#395=DIRECTION('',(1.,0.,-1.11022302462516E-16));
#396=DIRECTION('center_axis',(-1.,0.,7.40148683083438E-17));
#397=DIRECTION('ref_axis',(7.40148683083438E-17,0.,1.));
#398=DIRECTION('',(-1.,0.,7.40148683083438E-17));
#399=DIRECTION('center_axis',(0.,1.,0.));
#400=DIRECTION('ref_axis',(1.,0.,0.));
#401=DIRECTION('center_axis',(0.,-1.,0.));
#402=DIRECTION('ref_axis',(1.,0.,0.));
#403=DIRECTION('center_axis',(0.,-1.,0.));
#404=DIRECTION('ref_axis',(1.,0.,0.));
#405=DIRECTION('',(0.,-1.,0.));
#406=DIRECTION('center_axis',(0.,1.,0.));
#407=DIRECTION('ref_axis',(1.,0.,0.));
#408=DIRECTION('',(0.,-1.,0.));
#409=DIRECTION('center_axis',(-1.11022302462516E-16,0.,-1.));
#410=DIRECTION('ref_axis',(-1.,0.,1.11022302462516E-16));
#411=DIRECTION('center_axis',(0.,1.,0.));
#412=DIRECTION('ref_axis',(0.,0.,1.));
#413=CARTESIAN_POINT('',(0.,0.,0.));
#414=CARTESIAN_POINT('Origin',(-8.,0.,13.));
#415=CARTESIAN_POINT('',(-8.,5.,15.));
#416=CARTESIAN_POINT('',(-10.,5.,13.));
#417=CARTESIAN_POINT('Origin',(-8.,5.,13.));
#418=CARTESIAN_POINT('',(-10.,0.,13.));
#419=CARTESIAN_POINT('',(-10.,0.,13.));
#420=CARTESIAN_POINT('',(-8.,0.,15.));
#421=CARTESIAN_POINT('Origin',(-8.,0.,13.));
#422=CARTESIAN_POINT('',(-8.,0.,15.));
#423=CARTESIAN_POINT('Origin',(-1.11022302462516E-15,0.,-1.11022302462516E-15));
#424=CARTESIAN_POINT('',(-10.,0.,-13.));
#425=CARTESIAN_POINT('',(-10.,0.,-15.));
#426=CARTESIAN_POINT('',(-8.,0.,-15.));
#427=CARTESIAN_POINT('Origin',(-8.,0.,-13.));
#428=CARTESIAN_POINT('',(8.,0.,-15.));
#429=CARTESIAN_POINT('',(10.,0.,-15.));
#430=CARTESIAN_POINT('',(10.,0.,-13.));
#431=CARTESIAN_POINT('Origin',(8.,0.,-13.));
#432=CARTESIAN_POINT('',(10.,0.,13.));
#433=CARTESIAN_POINT('',(10.,0.,15.));
#434=CARTESIAN_POINT('',(8.,0.,15.));
#435=CARTESIAN_POINT('Origin',(8.,0.,13.));
#436=CARTESIAN_POINT('',(-10.,0.,15.));
#437=CARTESIAN_POINT('',(-2.1,0.,-9.));
#438=CARTESIAN_POINT('Origin',(0.,0.,-9.));
#439=CARTESIAN_POINT('',(-2.1,0.,9.));
#440=CARTESIAN_POINT('Origin',(0.,0.,9.));
#441=CARTESIAN_POINT('Origin',(-10.,0.,-15.));
#442=CARTESIAN_POINT('',(-10.,5.,3.));
#443=CARTESIAN_POINT('',(-10.,5.,-15.));
#444=CARTESIAN_POINT('',(-10.,5.,-3.));
#445=CARTESIAN_POINT('Origin',(-10.,5.,-7.40148683083438E-16));
#446=CARTESIAN_POINT('',(-10.,5.,-13.));
#447=CARTESIAN_POINT('',(-10.,5.,-15.));
#448=CARTESIAN_POINT('',(-10.,0.,-13.));
#449=CARTESIAN_POINT('Origin',(-8.,0.,-13.));
#450=CARTESIAN_POINT('',(-8.,5.,-15.));
#451=CARTESIAN_POINT('Origin',(-8.,5.,-13.));
#452=CARTESIAN_POINT('',(-8.,0.,-15.));
#453=CARTESIAN_POINT('Origin',(8.,0.,-13.));
#454=CARTESIAN_POINT('',(8.,5.,-15.));
#455=CARTESIAN_POINT('',(10.,5.,-13.));
#456=CARTESIAN_POINT('Origin',(8.,5.,-13.));
#457=CARTESIAN_POINT('',(10.,0.,-13.));
#458=CARTESIAN_POINT('',(8.,0.,-15.));
#459=CARTESIAN_POINT('Origin',(10.,0.,15.));
#460=CARTESIAN_POINT('',(10.,5.,-3.));
#461=CARTESIAN_POINT('',(10.,5.,15.));
#462=CARTESIAN_POINT('',(10.,5.,3.));
#463=CARTESIAN_POINT('Origin',(10.,5.,-2.22044604925031E-15));
#464=CARTESIAN_POINT('',(10.,5.,13.));
#465=CARTESIAN_POINT('',(10.,5.,15.));
#466=CARTESIAN_POINT('',(10.,0.,13.));
#467=CARTESIAN_POINT('Origin',(-1.11022302462516E-15,5.,0.));
#468=CARTESIAN_POINT('',(10.,5.,-3.));
#469=CARTESIAN_POINT('',(10.,5.,-15.));
#470=CARTESIAN_POINT('',(2.1,5.,-9.));
#471=CARTESIAN_POINT('',(-2.1,5.,-9.));
#472=CARTESIAN_POINT('Origin',(0.,5.,-9.));
#473=CARTESIAN_POINT('Origin',(0.,5.,-9.));
#474=CARTESIAN_POINT('Origin',(8.,0.,13.));
#475=CARTESIAN_POINT('',(8.,5.,15.));
#476=CARTESIAN_POINT('Origin',(8.,5.,13.));
#477=CARTESIAN_POINT('',(8.,0.,15.));
#478=CARTESIAN_POINT('Origin',(-10.,0.,15.));
#479=CARTESIAN_POINT('',(-10.,5.,15.));
#480=CARTESIAN_POINT('Origin',(10.,5.,-2.22044604925031E-15));
#481=CARTESIAN_POINT('',(10.,5.,3.));
#482=CARTESIAN_POINT('Origin',(0.,-31.4005494464026,9.));
#483=CARTESIAN_POINT('',(2.1,5.,9.));
#484=CARTESIAN_POINT('',(-2.1,5.,9.));
#485=CARTESIAN_POINT('Origin',(0.,5.,9.));
#486=CARTESIAN_POINT('Origin',(0.,5.,9.));
#487=CARTESIAN_POINT('',(-2.1,-31.4005494464026,9.));
#488=CARTESIAN_POINT('Origin',(0.,-31.4005494464026,-9.));
#489=CARTESIAN_POINT('',(-2.1,-31.4005494464026,-9.));
#490=CARTESIAN_POINT('Origin',(10.,0.,-15.));
#491=CARTESIAN_POINT('Origin',(-1.11022302462516E-15,5.,0.));
#492=UNCERTAINTY_MEASURE_WITH_UNIT(LENGTH_MEASURE(0.01),#496,
'DISTANCE_ACCURACY_VALUE',
'Maximum model space distance between geometric entities at asserted c
onnectivities');
#493=UNCERTAINTY_MEASURE_WITH_UNIT(LENGTH_MEASURE(0.01),#496,
'DISTANCE_ACCURACY_VALUE',
'Maximum model space distance between geometric entities at asserted c
onnectivities');
#494=(
GEOMETRIC_REPRESENTATION_CONTEXT(3)
GLOBAL_UNCERTAINTY_ASSIGNED_CONTEXT((#492))
GLOBAL_UNIT_ASSIGNED_CONTEXT((#496,#498,#499))
REPRESENTATION_CONTEXT('','3D')
);
#495=(
GEOMETRIC_REPRESENTATION_CONTEXT(3)
GLOBAL_UNCERTAINTY_ASSIGNED_CONTEXT((#493))
GLOBAL_UNIT_ASSIGNED_CONTEXT((#496,#498,#499))
REPRESENTATION_CONTEXT('','3D')
);
#496=(
LENGTH_UNIT()
NAMED_UNIT(*)
SI_UNIT(.MILLI.,.METRE.)
);
#497=(
LENGTH_UNIT()
NAMED_UNIT(*)
SI_UNIT(.CENTI.,.METRE.)
);
#498=(
NAMED_UNIT(*)
PLANE_ANGLE_UNIT()
SI_UNIT($,.RADIAN.)
);
#499=(
NAMED_UNIT(*)
SI_UNIT($,.STERADIAN.)
SOLID_ANGLE_UNIT()
);
#500=SHAPE_DEFINITION_REPRESENTATION(#501,#502);
#501=PRODUCT_DEFINITION_SHAPE('',$,#504);
#502=SHAPE_REPRESENTATION('',(#298),#494);
#503=DESIGN_CONTEXT('part definition',#508,'design');
#504=PRODUCT_DEFINITION('Plisch Output clamp','Plisch Output clamp',#505,
#503);
#505=PRODUCT_DEFINITION_FORMATION('',$,#510);
#506=PRODUCT_RELATED_PRODUCT_CATEGORY('Plisch Output clamp',
'Plisch Output clamp',(#510));
#507=APPLICATION_PROTOCOL_DEFINITION('international standard',
'ap203_configuration_controlled_3d_design_of_mechanical_parts_and_asse
mblies_mim_lf',2004,#508);
#508=APPLICATION_CONTEXT(
'Configuration Controlled 3D Design of Mechanical Parts and Assemblies');
#509=MECHANICAL_CONTEXT('part definition',#508,'mechanical');
#510=PRODUCT('Plisch Output clamp','Plisch Output clamp',$,(#509));
#511=PRESENTATION_STYLE_ASSIGNMENT((#512));
#512=SURFACE_STYLE_USAGE(.BOTH.,#515);
#513=SURFACE_STYLE_RENDERING_WITH_PROPERTIES($,#519,(#514));
#514=SURFACE_STYLE_TRANSPARENT(0.);
#515=SURFACE_SIDE_STYLE('',(#516,#513));
#516=SURFACE_STYLE_FILL_AREA(#517);
#517=FILL_AREA_STYLE('',(#518));
#518=FILL_AREA_STYLE_COLOUR('',#519);
#519=COLOUR_RGB('',0.749019607843137,0.749019607843137,0.749019607843137);
ENDSEC;
END-ISO-10303-21;
