ISO-10303-21;
HEADER;
/* Generated by software containing ST-Developer
 * from STEP Tools, Inc. (www.steptools.com) 
 */

FILE_DESCRIPTION(
/* description */ (''),
/* implementation_level */ '2;1');

FILE_NAME(
/* name */ 'D:\\PRJ\\450W Dummyload\\M-CAD\\lid.stp',
/* time_stamp */ '2025-05-09T20:46:45+02:00',
/* author */ ('Carsten Gr\X\F8n'),
/* organization */ (''),
/* preprocessor_version */ 'ST-DEVELOPER v18',
/* originating_system */ 'Autodesk Inventor 2020',
/* authorisation */ '');

FILE_SCHEMA (('CONFIG_CONTROL_DESIGN'));
ENDSEC;

DATA;
#10=MECHANICAL_DESIGN_GEOMETRIC_PRESENTATION_REPRESENTATION('',(#13),#641);
#11=SHAPE_REPRESENTATION_RELATIONSHIP('SRR','None',#648,#12);
#12=ADVANCED_BREP_SHAPE_REPRESENTATION('',(#14),#640);
#13=STYLED_ITEM('',(#657),#14);
#14=MANIFOLD_SOLID_BREP('Solid2',#367);
#15=FACE_BOUND('',#72,.T.);
#16=FACE_BOUND('',#73,.T.);
#17=FACE_BOUND('',#74,.T.);
#18=FACE_BOUND('',#75,.T.);
#19=FACE_BOUND('',#76,.T.);
#20=FACE_BOUND('',#77,.T.);
#21=FACE_BOUND('',#78,.T.);
#22=FACE_BOUND('',#79,.T.);
#23=FACE_BOUND('',#81,.T.);
#24=FACE_BOUND('',#82,.T.);
#25=FACE_BOUND('',#83,.T.);
#26=FACE_BOUND('',#84,.T.);
#27=FACE_BOUND('',#85,.T.);
#28=FACE_BOUND('',#86,.T.);
#29=FACE_BOUND('',#87,.T.);
#30=FACE_BOUND('',#88,.T.);
#31=PLANE('',#411);
#32=PLANE('',#415);
#33=PLANE('',#419);
#34=PLANE('',#423);
#35=PLANE('',#427);
#36=PLANE('',#428);
#37=FACE_OUTER_BOUND('',#55,.T.);
#38=FACE_OUTER_BOUND('',#56,.T.);
#39=FACE_OUTER_BOUND('',#57,.T.);
#40=FACE_OUTER_BOUND('',#58,.T.);
#41=FACE_OUTER_BOUND('',#59,.T.);
#42=FACE_OUTER_BOUND('',#60,.T.);
#43=FACE_OUTER_BOUND('',#61,.T.);
#44=FACE_OUTER_BOUND('',#62,.T.);
#45=FACE_OUTER_BOUND('',#63,.T.);
#46=FACE_OUTER_BOUND('',#64,.T.);
#47=FACE_OUTER_BOUND('',#65,.T.);
#48=FACE_OUTER_BOUND('',#66,.T.);
#49=FACE_OUTER_BOUND('',#67,.T.);
#50=FACE_OUTER_BOUND('',#68,.T.);
#51=FACE_OUTER_BOUND('',#69,.T.);
#52=FACE_OUTER_BOUND('',#70,.T.);
#53=FACE_OUTER_BOUND('',#71,.T.);
#54=FACE_OUTER_BOUND('',#80,.T.);
#55=EDGE_LOOP('',(#241,#242,#243,#244));
#56=EDGE_LOOP('',(#245,#246,#247,#248));
#57=EDGE_LOOP('',(#249,#250,#251,#252));
#58=EDGE_LOOP('',(#253,#254,#255,#256));
#59=EDGE_LOOP('',(#257,#258,#259,#260));
#60=EDGE_LOOP('',(#261,#262,#263,#264));
#61=EDGE_LOOP('',(#265,#266,#267,#268));
#62=EDGE_LOOP('',(#269,#270,#271,#272));
#63=EDGE_LOOP('',(#273,#274,#275,#276));
#64=EDGE_LOOP('',(#277,#278,#279,#280));
#65=EDGE_LOOP('',(#281,#282,#283,#284));
#66=EDGE_LOOP('',(#285,#286,#287,#288));
#67=EDGE_LOOP('',(#289,#290,#291,#292));
#68=EDGE_LOOP('',(#293,#294,#295,#296));
#69=EDGE_LOOP('',(#297,#298,#299,#300));
#70=EDGE_LOOP('',(#301,#302,#303,#304));
#71=EDGE_LOOP('',(#305,#306,#307,#308,#309,#310,#311,#312));
#72=EDGE_LOOP('',(#313));
#73=EDGE_LOOP('',(#314));
#74=EDGE_LOOP('',(#315));
#75=EDGE_LOOP('',(#316));
#76=EDGE_LOOP('',(#317));
#77=EDGE_LOOP('',(#318));
#78=EDGE_LOOP('',(#319));
#79=EDGE_LOOP('',(#320));
#80=EDGE_LOOP('',(#321,#322,#323,#324,#325,#326,#327,#328));
#81=EDGE_LOOP('',(#329));
#82=EDGE_LOOP('',(#330));
#83=EDGE_LOOP('',(#331));
#84=EDGE_LOOP('',(#332));
#85=EDGE_LOOP('',(#333));
#86=EDGE_LOOP('',(#334));
#87=EDGE_LOOP('',(#335));
#88=EDGE_LOOP('',(#336));
#89=LINE('',#544,#113);
#90=LINE('',#550,#114);
#91=LINE('',#556,#115);
#92=LINE('',#562,#116);
#93=LINE('',#568,#117);
#94=LINE('',#574,#118);
#95=LINE('',#580,#119);
#96=LINE('',#586,#120);
#97=LINE('',#591,#121);
#98=LINE('',#593,#122);
#99=LINE('',#595,#123);
#100=LINE('',#596,#124);
#101=LINE('',#602,#125);
#102=LINE('',#605,#126);
#103=LINE('',#607,#127);
#104=LINE('',#608,#128);
#105=LINE('',#614,#129);
#106=LINE('',#617,#130);
#107=LINE('',#619,#131);
#108=LINE('',#620,#132);
#109=LINE('',#626,#133);
#110=LINE('',#629,#134);
#111=LINE('',#631,#135);
#112=LINE('',#632,#136);
#113=VECTOR('',#435,1.3);
#114=VECTOR('',#442,2.15);
#115=VECTOR('',#449,2.15);
#116=VECTOR('',#456,1.3);
#117=VECTOR('',#463,2.15);
#118=VECTOR('',#470,1.3);
#119=VECTOR('',#477,1.3);
#120=VECTOR('',#484,2.15);
#121=VECTOR('',#489,10.);
#122=VECTOR('',#490,10.);
#123=VECTOR('',#491,10.);
#124=VECTOR('',#492,10.);
#125=VECTOR('',#499,10.);
#126=VECTOR('',#502,10.);
#127=VECTOR('',#503,10.);
#128=VECTOR('',#504,10.);
#129=VECTOR('',#511,10.);
#130=VECTOR('',#514,10.);
#131=VECTOR('',#515,10.);
#132=VECTOR('',#516,10.);
#133=VECTOR('',#523,10.);
#134=VECTOR('',#526,10.);
#135=VECTOR('',#527,10.);
#136=VECTOR('',#528,10.);
#137=CIRCLE('',#388,1.3);
#138=CIRCLE('',#389,1.3);
#139=CIRCLE('',#391,2.15);
#140=CIRCLE('',#392,2.15);
#141=CIRCLE('',#394,2.15);
#142=CIRCLE('',#395,2.15);
#143=CIRCLE('',#397,1.3);
#144=CIRCLE('',#398,1.3);
#145=CIRCLE('',#400,2.15);
#146=CIRCLE('',#401,2.15);
#147=CIRCLE('',#403,1.3);
#148=CIRCLE('',#404,1.3);
#149=CIRCLE('',#406,1.3);
#150=CIRCLE('',#407,1.3);
#151=CIRCLE('',#409,2.15);
#152=CIRCLE('',#410,2.15);
#153=CIRCLE('',#413,5.);
#154=CIRCLE('',#414,5.);
#155=CIRCLE('',#417,5.);
#156=CIRCLE('',#418,5.);
#157=CIRCLE('',#421,5.);
#158=CIRCLE('',#422,5.);
#159=CIRCLE('',#425,5.);
#160=CIRCLE('',#426,5.);
#161=VERTEX_POINT('',#541);
#162=VERTEX_POINT('',#543);
#163=VERTEX_POINT('',#547);
#164=VERTEX_POINT('',#549);
#165=VERTEX_POINT('',#553);
#166=VERTEX_POINT('',#555);
#167=VERTEX_POINT('',#559);
#168=VERTEX_POINT('',#561);
#169=VERTEX_POINT('',#565);
#170=VERTEX_POINT('',#567);
#171=VERTEX_POINT('',#571);
#172=VERTEX_POINT('',#573);
#173=VERTEX_POINT('',#577);
#174=VERTEX_POINT('',#579);
#175=VERTEX_POINT('',#583);
#176=VERTEX_POINT('',#585);
#177=VERTEX_POINT('',#589);
#178=VERTEX_POINT('',#590);
#179=VERTEX_POINT('',#592);
#180=VERTEX_POINT('',#594);
#181=VERTEX_POINT('',#598);
#182=VERTEX_POINT('',#600);
#183=VERTEX_POINT('',#604);
#184=VERTEX_POINT('',#606);
#185=VERTEX_POINT('',#610);
#186=VERTEX_POINT('',#612);
#187=VERTEX_POINT('',#616);
#188=VERTEX_POINT('',#618);
#189=VERTEX_POINT('',#622);
#190=VERTEX_POINT('',#624);
#191=VERTEX_POINT('',#628);
#192=VERTEX_POINT('',#630);
#193=EDGE_CURVE('',#161,#161,#137,.T.);
#194=EDGE_CURVE('',#161,#162,#89,.T.);
#195=EDGE_CURVE('',#162,#162,#138,.T.);
#196=EDGE_CURVE('',#163,#163,#139,.T.);
#197=EDGE_CURVE('',#163,#164,#90,.T.);
#198=EDGE_CURVE('',#164,#164,#140,.T.);
#199=EDGE_CURVE('',#165,#165,#141,.T.);
#200=EDGE_CURVE('',#165,#166,#91,.T.);
#201=EDGE_CURVE('',#166,#166,#142,.T.);
#202=EDGE_CURVE('',#167,#167,#143,.T.);
#203=EDGE_CURVE('',#167,#168,#92,.T.);
#204=EDGE_CURVE('',#168,#168,#144,.T.);
#205=EDGE_CURVE('',#169,#169,#145,.T.);
#206=EDGE_CURVE('',#169,#170,#93,.T.);
#207=EDGE_CURVE('',#170,#170,#146,.T.);
#208=EDGE_CURVE('',#171,#171,#147,.T.);
#209=EDGE_CURVE('',#171,#172,#94,.T.);
#210=EDGE_CURVE('',#172,#172,#148,.T.);
#211=EDGE_CURVE('',#173,#173,#149,.T.);
#212=EDGE_CURVE('',#173,#174,#95,.T.);
#213=EDGE_CURVE('',#174,#174,#150,.T.);
#214=EDGE_CURVE('',#175,#175,#151,.T.);
#215=EDGE_CURVE('',#175,#176,#96,.T.);
#216=EDGE_CURVE('',#176,#176,#152,.T.);
#217=EDGE_CURVE('',#177,#178,#97,.T.);
#218=EDGE_CURVE('',#178,#179,#98,.T.);
#219=EDGE_CURVE('',#180,#179,#99,.T.);
#220=EDGE_CURVE('',#177,#180,#100,.T.);
#221=EDGE_CURVE('',#181,#177,#153,.T.);
#222=EDGE_CURVE('',#182,#180,#154,.T.);
#223=EDGE_CURVE('',#181,#182,#101,.T.);
#224=EDGE_CURVE('',#183,#181,#102,.T.);
#225=EDGE_CURVE('',#184,#182,#103,.T.);
#226=EDGE_CURVE('',#183,#184,#104,.T.);
#227=EDGE_CURVE('',#185,#183,#155,.T.);
#228=EDGE_CURVE('',#186,#184,#156,.T.);
#229=EDGE_CURVE('',#185,#186,#105,.T.);
#230=EDGE_CURVE('',#187,#185,#106,.T.);
#231=EDGE_CURVE('',#188,#186,#107,.T.);
#232=EDGE_CURVE('',#187,#188,#108,.T.);
#233=EDGE_CURVE('',#189,#187,#157,.T.);
#234=EDGE_CURVE('',#190,#188,#158,.T.);
#235=EDGE_CURVE('',#189,#190,#109,.T.);
#236=EDGE_CURVE('',#191,#189,#110,.T.);
#237=EDGE_CURVE('',#192,#190,#111,.T.);
#238=EDGE_CURVE('',#191,#192,#112,.T.);
#239=EDGE_CURVE('',#178,#191,#159,.T.);
#240=EDGE_CURVE('',#179,#192,#160,.T.);
#241=ORIENTED_EDGE('',*,*,#193,.F.);
#242=ORIENTED_EDGE('',*,*,#194,.T.);
#243=ORIENTED_EDGE('',*,*,#195,.T.);
#244=ORIENTED_EDGE('',*,*,#194,.F.);
#245=ORIENTED_EDGE('',*,*,#196,.F.);
#246=ORIENTED_EDGE('',*,*,#197,.T.);
#247=ORIENTED_EDGE('',*,*,#198,.T.);
#248=ORIENTED_EDGE('',*,*,#197,.F.);
#249=ORIENTED_EDGE('',*,*,#199,.F.);
#250=ORIENTED_EDGE('',*,*,#200,.T.);
#251=ORIENTED_EDGE('',*,*,#201,.T.);
#252=ORIENTED_EDGE('',*,*,#200,.F.);
#253=ORIENTED_EDGE('',*,*,#202,.F.);
#254=ORIENTED_EDGE('',*,*,#203,.T.);
#255=ORIENTED_EDGE('',*,*,#204,.T.);
#256=ORIENTED_EDGE('',*,*,#203,.F.);
#257=ORIENTED_EDGE('',*,*,#205,.F.);
#258=ORIENTED_EDGE('',*,*,#206,.T.);
#259=ORIENTED_EDGE('',*,*,#207,.T.);
#260=ORIENTED_EDGE('',*,*,#206,.F.);
#261=ORIENTED_EDGE('',*,*,#208,.F.);
#262=ORIENTED_EDGE('',*,*,#209,.T.);
#263=ORIENTED_EDGE('',*,*,#210,.T.);
#264=ORIENTED_EDGE('',*,*,#209,.F.);
#265=ORIENTED_EDGE('',*,*,#211,.F.);
#266=ORIENTED_EDGE('',*,*,#212,.T.);
#267=ORIENTED_EDGE('',*,*,#213,.T.);
#268=ORIENTED_EDGE('',*,*,#212,.F.);
#269=ORIENTED_EDGE('',*,*,#214,.F.);
#270=ORIENTED_EDGE('',*,*,#215,.T.);
#271=ORIENTED_EDGE('',*,*,#216,.T.);
#272=ORIENTED_EDGE('',*,*,#215,.F.);
#273=ORIENTED_EDGE('',*,*,#217,.T.);
#274=ORIENTED_EDGE('',*,*,#218,.T.);
#275=ORIENTED_EDGE('',*,*,#219,.F.);
#276=ORIENTED_EDGE('',*,*,#220,.F.);
#277=ORIENTED_EDGE('',*,*,#221,.T.);
#278=ORIENTED_EDGE('',*,*,#220,.T.);
#279=ORIENTED_EDGE('',*,*,#222,.F.);
#280=ORIENTED_EDGE('',*,*,#223,.F.);
#281=ORIENTED_EDGE('',*,*,#224,.T.);
#282=ORIENTED_EDGE('',*,*,#223,.T.);
#283=ORIENTED_EDGE('',*,*,#225,.F.);
#284=ORIENTED_EDGE('',*,*,#226,.F.);
#285=ORIENTED_EDGE('',*,*,#227,.T.);
#286=ORIENTED_EDGE('',*,*,#226,.T.);
#287=ORIENTED_EDGE('',*,*,#228,.F.);
#288=ORIENTED_EDGE('',*,*,#229,.F.);
#289=ORIENTED_EDGE('',*,*,#230,.T.);
#290=ORIENTED_EDGE('',*,*,#229,.T.);
#291=ORIENTED_EDGE('',*,*,#231,.F.);
#292=ORIENTED_EDGE('',*,*,#232,.F.);
#293=ORIENTED_EDGE('',*,*,#233,.T.);
#294=ORIENTED_EDGE('',*,*,#232,.T.);
#295=ORIENTED_EDGE('',*,*,#234,.F.);
#296=ORIENTED_EDGE('',*,*,#235,.F.);
#297=ORIENTED_EDGE('',*,*,#236,.T.);
#298=ORIENTED_EDGE('',*,*,#235,.T.);
#299=ORIENTED_EDGE('',*,*,#237,.F.);
#300=ORIENTED_EDGE('',*,*,#238,.F.);
#301=ORIENTED_EDGE('',*,*,#239,.T.);
#302=ORIENTED_EDGE('',*,*,#238,.T.);
#303=ORIENTED_EDGE('',*,*,#240,.F.);
#304=ORIENTED_EDGE('',*,*,#218,.F.);
#305=ORIENTED_EDGE('',*,*,#240,.T.);
#306=ORIENTED_EDGE('',*,*,#237,.T.);
#307=ORIENTED_EDGE('',*,*,#234,.T.);
#308=ORIENTED_EDGE('',*,*,#231,.T.);
#309=ORIENTED_EDGE('',*,*,#228,.T.);
#310=ORIENTED_EDGE('',*,*,#225,.T.);
#311=ORIENTED_EDGE('',*,*,#222,.T.);
#312=ORIENTED_EDGE('',*,*,#219,.T.);
#313=ORIENTED_EDGE('',*,*,#214,.T.);
#314=ORIENTED_EDGE('',*,*,#211,.T.);
#315=ORIENTED_EDGE('',*,*,#208,.T.);
#316=ORIENTED_EDGE('',*,*,#205,.T.);
#317=ORIENTED_EDGE('',*,*,#202,.T.);
#318=ORIENTED_EDGE('',*,*,#199,.T.);
#319=ORIENTED_EDGE('',*,*,#196,.T.);
#320=ORIENTED_EDGE('',*,*,#193,.T.);
#321=ORIENTED_EDGE('',*,*,#239,.F.);
#322=ORIENTED_EDGE('',*,*,#217,.F.);
#323=ORIENTED_EDGE('',*,*,#221,.F.);
#324=ORIENTED_EDGE('',*,*,#224,.F.);
#325=ORIENTED_EDGE('',*,*,#227,.F.);
#326=ORIENTED_EDGE('',*,*,#230,.F.);
#327=ORIENTED_EDGE('',*,*,#233,.F.);
#328=ORIENTED_EDGE('',*,*,#236,.F.);
#329=ORIENTED_EDGE('',*,*,#216,.F.);
#330=ORIENTED_EDGE('',*,*,#213,.F.);
#331=ORIENTED_EDGE('',*,*,#210,.F.);
#332=ORIENTED_EDGE('',*,*,#207,.F.);
#333=ORIENTED_EDGE('',*,*,#204,.F.);
#334=ORIENTED_EDGE('',*,*,#201,.F.);
#335=ORIENTED_EDGE('',*,*,#198,.F.);
#336=ORIENTED_EDGE('',*,*,#195,.F.);
#337=CYLINDRICAL_SURFACE('',#387,1.3);
#338=CYLINDRICAL_SURFACE('',#390,2.15);
#339=CYLINDRICAL_SURFACE('',#393,2.15);
#340=CYLINDRICAL_SURFACE('',#396,1.3);
#341=CYLINDRICAL_SURFACE('',#399,2.15);
#342=CYLINDRICAL_SURFACE('',#402,1.3);
#343=CYLINDRICAL_SURFACE('',#405,1.3);
#344=CYLINDRICAL_SURFACE('',#408,2.15);
#345=CYLINDRICAL_SURFACE('',#412,5.);
#346=CYLINDRICAL_SURFACE('',#416,5.);
#347=CYLINDRICAL_SURFACE('',#420,5.);
#348=CYLINDRICAL_SURFACE('',#424,5.);
#349=ADVANCED_FACE('',(#37),#337,.F.);
#350=ADVANCED_FACE('',(#38),#338,.F.);
#351=ADVANCED_FACE('',(#39),#339,.F.);
#352=ADVANCED_FACE('',(#40),#340,.F.);
#353=ADVANCED_FACE('',(#41),#341,.F.);
#354=ADVANCED_FACE('',(#42),#342,.F.);
#355=ADVANCED_FACE('',(#43),#343,.F.);
#356=ADVANCED_FACE('',(#44),#344,.F.);
#357=ADVANCED_FACE('',(#45),#31,.T.);
#358=ADVANCED_FACE('',(#46),#345,.T.);
#359=ADVANCED_FACE('',(#47),#32,.T.);
#360=ADVANCED_FACE('',(#48),#346,.T.);
#361=ADVANCED_FACE('',(#49),#33,.T.);
#362=ADVANCED_FACE('',(#50),#347,.T.);
#363=ADVANCED_FACE('',(#51),#34,.T.);
#364=ADVANCED_FACE('',(#52),#348,.T.);
#365=ADVANCED_FACE('',(#53,#15,#16,#17,#18,#19,#20,#21,#22),#35,.T.);
#366=ADVANCED_FACE('',(#54,#23,#24,#25,#26,#27,#28,#29,#30),#36,.F.);
#367=CLOSED_SHELL('',(#349,#350,#351,#352,#353,#354,#355,#356,#357,#358,
#359,#360,#361,#362,#363,#364,#365,#366));
#368=DERIVED_UNIT_ELEMENT(#370,1.);
#369=DERIVED_UNIT_ELEMENT(#643,3.);
#370=(
MASS_UNIT()
NAMED_UNIT(*)
SI_UNIT($,.GRAM.)
);
#371=DERIVED_UNIT((#368,#369));
#372=MEASURE_REPRESENTATION_ITEM('density measure',
POSITIVE_RATIO_MEASURE(1.),#371);
#373=PROPERTY_DEFINITION_REPRESENTATION(#378,#375);
#374=PROPERTY_DEFINITION_REPRESENTATION(#379,#376);
#375=REPRESENTATION('material name',(#377),#640);
#376=REPRESENTATION('density',(#372),#640);
#377=DESCRIPTIVE_REPRESENTATION_ITEM('Generic','Generic');
#378=PROPERTY_DEFINITION('material property','material name',#650);
#379=PROPERTY_DEFINITION('material property','density of part',#650);
#380=DATE_TIME_ROLE('creation_date');
#381=CC_DESIGN_DATE_AND_TIME_ASSIGNMENT(#382,#380,(#650));
#382=DATE_AND_TIME(#383,#384);
#383=CALENDAR_DATE(2025,2,5);
#384=LOCAL_TIME(9,58,50.,#385);
#385=COORDINATED_UNIVERSAL_TIME_OFFSET(0,0,.BEHIND.);
#386=AXIS2_PLACEMENT_3D('placement',#539,#429,#430);
#387=AXIS2_PLACEMENT_3D('',#540,#431,#432);
#388=AXIS2_PLACEMENT_3D('',#542,#433,#434);
#389=AXIS2_PLACEMENT_3D('',#545,#436,#437);
#390=AXIS2_PLACEMENT_3D('',#546,#438,#439);
#391=AXIS2_PLACEMENT_3D('',#548,#440,#441);
#392=AXIS2_PLACEMENT_3D('',#551,#443,#444);
#393=AXIS2_PLACEMENT_3D('',#552,#445,#446);
#394=AXIS2_PLACEMENT_3D('',#554,#447,#448);
#395=AXIS2_PLACEMENT_3D('',#557,#450,#451);
#396=AXIS2_PLACEMENT_3D('',#558,#452,#453);
#397=AXIS2_PLACEMENT_3D('',#560,#454,#455);
#398=AXIS2_PLACEMENT_3D('',#563,#457,#458);
#399=AXIS2_PLACEMENT_3D('',#564,#459,#460);
#400=AXIS2_PLACEMENT_3D('',#566,#461,#462);
#401=AXIS2_PLACEMENT_3D('',#569,#464,#465);
#402=AXIS2_PLACEMENT_3D('',#570,#466,#467);
#403=AXIS2_PLACEMENT_3D('',#572,#468,#469);
#404=AXIS2_PLACEMENT_3D('',#575,#471,#472);
#405=AXIS2_PLACEMENT_3D('',#576,#473,#474);
#406=AXIS2_PLACEMENT_3D('',#578,#475,#476);
#407=AXIS2_PLACEMENT_3D('',#581,#478,#479);
#408=AXIS2_PLACEMENT_3D('',#582,#480,#481);
#409=AXIS2_PLACEMENT_3D('',#584,#482,#483);
#410=AXIS2_PLACEMENT_3D('',#587,#485,#486);
#411=AXIS2_PLACEMENT_3D('',#588,#487,#488);
#412=AXIS2_PLACEMENT_3D('',#597,#493,#494);
#413=AXIS2_PLACEMENT_3D('',#599,#495,#496);
#414=AXIS2_PLACEMENT_3D('',#601,#497,#498);
#415=AXIS2_PLACEMENT_3D('',#603,#500,#501);
#416=AXIS2_PLACEMENT_3D('',#609,#505,#506);
#417=AXIS2_PLACEMENT_3D('',#611,#507,#508);
#418=AXIS2_PLACEMENT_3D('',#613,#509,#510);
#419=AXIS2_PLACEMENT_3D('',#615,#512,#513);
#420=AXIS2_PLACEMENT_3D('',#621,#517,#518);
#421=AXIS2_PLACEMENT_3D('',#623,#519,#520);
#422=AXIS2_PLACEMENT_3D('',#625,#521,#522);
#423=AXIS2_PLACEMENT_3D('',#627,#524,#525);
#424=AXIS2_PLACEMENT_3D('',#633,#529,#530);
#425=AXIS2_PLACEMENT_3D('',#634,#531,#532);
#426=AXIS2_PLACEMENT_3D('',#635,#533,#534);
#427=AXIS2_PLACEMENT_3D('',#636,#535,#536);
#428=AXIS2_PLACEMENT_3D('',#637,#537,#538);
#429=DIRECTION('axis',(0.,0.,1.));
#430=DIRECTION('refdir',(1.,0.,0.));
#431=DIRECTION('center_axis',(0.,1.,0.));
#432=DIRECTION('ref_axis',(-1.,0.,-1.70803542250024E-16));
#433=DIRECTION('center_axis',(0.,-1.,0.));
#434=DIRECTION('ref_axis',(-1.,0.,-1.70803542250024E-16));
#435=DIRECTION('',(0.,-1.,0.));
#436=DIRECTION('center_axis',(0.,-1.,0.));
#437=DIRECTION('ref_axis',(-1.,0.,-1.70803542250024E-16));
#438=DIRECTION('center_axis',(0.,1.,0.));
#439=DIRECTION('ref_axis',(-1.,0.,-1.70803542250024E-16));
#440=DIRECTION('center_axis',(0.,-1.,0.));
#441=DIRECTION('ref_axis',(-1.,0.,-1.70803542250024E-16));
#442=DIRECTION('',(0.,-1.,0.));
#443=DIRECTION('center_axis',(0.,-1.,0.));
#444=DIRECTION('ref_axis',(-1.,0.,-1.70803542250024E-16));
#445=DIRECTION('center_axis',(0.,1.,0.));
#446=DIRECTION('ref_axis',(-1.,0.,-1.70803542250024E-16));
#447=DIRECTION('center_axis',(0.,-1.,0.));
#448=DIRECTION('ref_axis',(-1.,0.,-1.70803542250024E-16));
#449=DIRECTION('',(0.,-1.,0.));
#450=DIRECTION('center_axis',(0.,-1.,0.));
#451=DIRECTION('ref_axis',(-1.,0.,-1.70803542250024E-16));
#452=DIRECTION('center_axis',(0.,1.,0.));
#453=DIRECTION('ref_axis',(-1.,0.,-1.70803542250024E-16));
#454=DIRECTION('center_axis',(0.,-1.,0.));
#455=DIRECTION('ref_axis',(-1.,0.,-1.70803542250024E-16));
#456=DIRECTION('',(0.,-1.,0.));
#457=DIRECTION('center_axis',(0.,-1.,0.));
#458=DIRECTION('ref_axis',(-1.,0.,-1.70803542250024E-16));
#459=DIRECTION('center_axis',(0.,1.,0.));
#460=DIRECTION('ref_axis',(-1.,0.,-1.70803542250024E-16));
#461=DIRECTION('center_axis',(0.,-1.,0.));
#462=DIRECTION('ref_axis',(-1.,0.,-1.70803542250024E-16));
#463=DIRECTION('',(0.,-1.,0.));
#464=DIRECTION('center_axis',(0.,-1.,0.));
#465=DIRECTION('ref_axis',(-1.,0.,-1.70803542250024E-16));
#466=DIRECTION('center_axis',(0.,1.,0.));
#467=DIRECTION('ref_axis',(-1.,0.,-1.70803542250024E-16));
#468=DIRECTION('center_axis',(0.,-1.,0.));
#469=DIRECTION('ref_axis',(-1.,0.,-1.70803542250024E-16));
#470=DIRECTION('',(0.,-1.,0.));
#471=DIRECTION('center_axis',(0.,-1.,0.));
#472=DIRECTION('ref_axis',(-1.,0.,-1.70803542250024E-16));
#473=DIRECTION('center_axis',(0.,1.,0.));
#474=DIRECTION('ref_axis',(-1.,0.,-1.70803542250024E-16));
#475=DIRECTION('center_axis',(0.,-1.,0.));
#476=DIRECTION('ref_axis',(-1.,0.,-1.70803542250024E-16));
#477=DIRECTION('',(0.,-1.,0.));
#478=DIRECTION('center_axis',(0.,-1.,0.));
#479=DIRECTION('ref_axis',(-1.,0.,-1.70803542250024E-16));
#480=DIRECTION('center_axis',(0.,1.,0.));
#481=DIRECTION('ref_axis',(-1.,0.,-1.70803542250024E-16));
#482=DIRECTION('center_axis',(0.,-1.,0.));
#483=DIRECTION('ref_axis',(-1.,0.,-1.70803542250024E-16));
#484=DIRECTION('',(0.,-1.,0.));
#485=DIRECTION('center_axis',(0.,-1.,0.));
#486=DIRECTION('ref_axis',(-1.,0.,-1.70803542250024E-16));
#487=DIRECTION('center_axis',(-1.,0.,-4.27008855625054E-18));
#488=DIRECTION('ref_axis',(-4.27008855625054E-18,0.,1.));
#489=DIRECTION('',(-4.27008855625054E-18,0.,1.));
#490=DIRECTION('',(0.,1.,0.));
#491=DIRECTION('',(-4.27008855625054E-18,0.,1.));
#492=DIRECTION('',(0.,1.,0.));
#493=DIRECTION('center_axis',(0.,1.,0.));
#494=DIRECTION('ref_axis',(-2.73285667600039E-16,0.,-1.));
#495=DIRECTION('center_axis',(0.,1.,0.));
#496=DIRECTION('ref_axis',(-2.73285667600039E-16,0.,-1.));
#497=DIRECTION('center_axis',(0.,1.,0.));
#498=DIRECTION('ref_axis',(-2.73285667600039E-16,0.,-1.));
#499=DIRECTION('',(0.,1.,0.));
#500=DIRECTION('center_axis',(1.70803542250024E-16,0.,-1.));
#501=DIRECTION('ref_axis',(-1.,0.,-1.70803542250024E-16));
#502=DIRECTION('',(-1.,0.,-1.70803542250024E-16));
#503=DIRECTION('',(-1.,0.,-1.70803542250024E-16));
#504=DIRECTION('',(0.,1.,0.));
#505=DIRECTION('center_axis',(0.,1.,0.));
#506=DIRECTION('ref_axis',(1.,0.,-7.17374877450101E-16));
#507=DIRECTION('center_axis',(0.,1.,0.));
#508=DIRECTION('ref_axis',(1.,0.,-7.17374877450101E-16));
#509=DIRECTION('center_axis',(0.,1.,0.));
#510=DIRECTION('ref_axis',(1.,0.,-7.17374877450101E-16));
#511=DIRECTION('',(0.,1.,0.));
#512=DIRECTION('center_axis',(1.,0.,1.70803542250024E-16));
#513=DIRECTION('ref_axis',(1.70803542250024E-16,0.,-1.));
#514=DIRECTION('',(1.70803542250024E-16,0.,-1.));
#515=DIRECTION('',(1.70803542250024E-16,0.,-1.));
#516=DIRECTION('',(0.,1.,0.));
#517=DIRECTION('center_axis',(0.,1.,0.));
#518=DIRECTION('ref_axis',(-1.70803542250024E-16,0.,1.));
#519=DIRECTION('center_axis',(0.,1.,0.));
#520=DIRECTION('ref_axis',(-1.70803542250024E-16,0.,1.));
#521=DIRECTION('center_axis',(0.,1.,0.));
#522=DIRECTION('ref_axis',(-1.70803542250024E-16,0.,1.));
#523=DIRECTION('',(0.,1.,0.));
#524=DIRECTION('center_axis',(-1.70803542250024E-16,0.,1.));
#525=DIRECTION('ref_axis',(1.,0.,1.70803542250024E-16));
#526=DIRECTION('',(1.,0.,1.70803542250024E-16));
#527=DIRECTION('',(1.,0.,1.70803542250024E-16));
#528=DIRECTION('',(0.,1.,0.));
#529=DIRECTION('center_axis',(0.,1.,0.));
#530=DIRECTION('ref_axis',(-1.,0.,-1.70803542250024E-16));
#531=DIRECTION('center_axis',(0.,1.,0.));
#532=DIRECTION('ref_axis',(-1.,0.,-1.70803542250024E-16));
#533=DIRECTION('center_axis',(0.,1.,0.));
#534=DIRECTION('ref_axis',(-1.,0.,-1.70803542250024E-16));
#535=DIRECTION('center_axis',(0.,1.,0.));
#536=DIRECTION('ref_axis',(0.,0.,1.));
#537=DIRECTION('center_axis',(0.,1.,0.));
#538=DIRECTION('ref_axis',(0.,0.,1.));
#539=CARTESIAN_POINT('',(0.,0.,0.));
#540=CARTESIAN_POINT('Origin',(0.,15.,20.5));
#541=CARTESIAN_POINT('',(1.3,17.,20.5));
#542=CARTESIAN_POINT('Origin',(0.,17.,20.5));
#543=CARTESIAN_POINT('',(1.3,15.,20.5));
#544=CARTESIAN_POINT('',(1.3,15.,20.5));
#545=CARTESIAN_POINT('Origin',(0.,15.,20.5));
#546=CARTESIAN_POINT('Origin',(13.,15.,-20.));
#547=CARTESIAN_POINT('',(15.15,17.,-20.));
#548=CARTESIAN_POINT('Origin',(13.,17.,-20.));
#549=CARTESIAN_POINT('',(15.15,15.,-20.));
#550=CARTESIAN_POINT('',(15.15,15.,-20.));
#551=CARTESIAN_POINT('Origin',(13.,15.,-20.));
#552=CARTESIAN_POINT('Origin',(-13.,15.,20.));
#553=CARTESIAN_POINT('',(-10.85,17.,20.));
#554=CARTESIAN_POINT('Origin',(-13.,17.,20.));
#555=CARTESIAN_POINT('',(-10.85,15.,20.));
#556=CARTESIAN_POINT('',(-10.85,15.,20.));
#557=CARTESIAN_POINT('Origin',(-13.,15.,20.));
#558=CARTESIAN_POINT('Origin',(13.5,15.,0.));
#559=CARTESIAN_POINT('',(14.8,17.,0.));
#560=CARTESIAN_POINT('Origin',(13.5,17.,0.));
#561=CARTESIAN_POINT('',(14.8,15.,6.28405210358753E-17));
#562=CARTESIAN_POINT('',(14.8,15.,6.28405210358753E-17));
#563=CARTESIAN_POINT('Origin',(13.5,15.,0.));
#564=CARTESIAN_POINT('Origin',(13.,15.,20.));
#565=CARTESIAN_POINT('',(15.15,17.,20.));
#566=CARTESIAN_POINT('Origin',(13.,17.,20.));
#567=CARTESIAN_POINT('',(15.15,15.,20.));
#568=CARTESIAN_POINT('',(15.15,15.,20.));
#569=CARTESIAN_POINT('Origin',(13.,15.,20.));
#570=CARTESIAN_POINT('Origin',(-13.5,15.,4.44089209850063E-15));
#571=CARTESIAN_POINT('',(-12.2,17.,4.44089209850063E-15));
#572=CARTESIAN_POINT('Origin',(-13.5,17.,4.44089209850063E-15));
#573=CARTESIAN_POINT('',(-12.2,15.,4.5037326195365E-15));
#574=CARTESIAN_POINT('',(-12.2,15.,4.5037326195365E-15));
#575=CARTESIAN_POINT('Origin',(-13.5,15.,4.44089209850063E-15));
#576=CARTESIAN_POINT('Origin',(0.,15.,-20.5));
#577=CARTESIAN_POINT('',(1.3,17.,-20.5));
#578=CARTESIAN_POINT('Origin',(0.,17.,-20.5));
#579=CARTESIAN_POINT('',(1.3,15.,-20.5));
#580=CARTESIAN_POINT('',(1.3,15.,-20.5));
#581=CARTESIAN_POINT('Origin',(0.,15.,-20.5));
#582=CARTESIAN_POINT('Origin',(-13.,15.,-20.));
#583=CARTESIAN_POINT('',(-10.85,17.,-20.));
#584=CARTESIAN_POINT('Origin',(-13.,17.,-20.));
#585=CARTESIAN_POINT('',(-10.85,15.,-20.));
#586=CARTESIAN_POINT('',(-10.85,15.,-20.));
#587=CARTESIAN_POINT('Origin',(-13.,15.,-20.));
#588=CARTESIAN_POINT('Origin',(-18.,15.,-20.));
#589=CARTESIAN_POINT('',(-18.,15.,-20.));
#590=CARTESIAN_POINT('',(-18.,15.,20.));
#591=CARTESIAN_POINT('',(-18.,15.,-20.));
#592=CARTESIAN_POINT('',(-18.,17.,20.));
#593=CARTESIAN_POINT('',(-18.,15.,20.));
#594=CARTESIAN_POINT('',(-18.,17.,-20.));
#595=CARTESIAN_POINT('',(-18.,17.,-20.));
#596=CARTESIAN_POINT('',(-18.,15.,-20.));
#597=CARTESIAN_POINT('Origin',(-13.,15.,-20.));
#598=CARTESIAN_POINT('',(-13.,15.,-25.));
#599=CARTESIAN_POINT('Origin',(-13.,15.,-20.));
#600=CARTESIAN_POINT('',(-13.,17.,-25.));
#601=CARTESIAN_POINT('Origin',(-13.,17.,-20.));
#602=CARTESIAN_POINT('',(-13.,15.,-25.));
#603=CARTESIAN_POINT('Origin',(13.,15.,-25.));
#604=CARTESIAN_POINT('',(13.,15.,-25.));
#605=CARTESIAN_POINT('',(13.,15.,-25.));
#606=CARTESIAN_POINT('',(13.,17.,-25.));
#607=CARTESIAN_POINT('',(13.,17.,-25.));
#608=CARTESIAN_POINT('',(13.,15.,-25.));
#609=CARTESIAN_POINT('Origin',(13.,15.,-20.));
#610=CARTESIAN_POINT('',(18.,15.,-20.));
#611=CARTESIAN_POINT('Origin',(13.,15.,-20.));
#612=CARTESIAN_POINT('',(18.,17.,-20.));
#613=CARTESIAN_POINT('Origin',(13.,17.,-20.));
#614=CARTESIAN_POINT('',(18.,15.,-20.));
#615=CARTESIAN_POINT('Origin',(18.,15.,20.));
#616=CARTESIAN_POINT('',(18.,15.,20.));
#617=CARTESIAN_POINT('',(18.,15.,20.));
#618=CARTESIAN_POINT('',(18.,17.,20.));
#619=CARTESIAN_POINT('',(18.,17.,20.));
#620=CARTESIAN_POINT('',(18.,15.,20.));
#621=CARTESIAN_POINT('Origin',(13.,15.,20.));
#622=CARTESIAN_POINT('',(13.,15.,25.));
#623=CARTESIAN_POINT('Origin',(13.,15.,20.));
#624=CARTESIAN_POINT('',(13.,17.,25.));
#625=CARTESIAN_POINT('Origin',(13.,17.,20.));
#626=CARTESIAN_POINT('',(13.,15.,25.));
#627=CARTESIAN_POINT('Origin',(-13.,15.,25.));
#628=CARTESIAN_POINT('',(-13.,15.,25.));
#629=CARTESIAN_POINT('',(-13.,15.,25.));
#630=CARTESIAN_POINT('',(-13.,17.,25.));
#631=CARTESIAN_POINT('',(-13.,17.,25.));
#632=CARTESIAN_POINT('',(-13.,15.,25.));
#633=CARTESIAN_POINT('Origin',(-13.,15.,20.));
#634=CARTESIAN_POINT('Origin',(-13.,15.,20.));
#635=CARTESIAN_POINT('Origin',(-13.,17.,20.));
#636=CARTESIAN_POINT('Origin',(1.11022302462516E-15,17.,0.));
#637=CARTESIAN_POINT('Origin',(1.11022302462516E-15,15.,0.));
#638=UNCERTAINTY_MEASURE_WITH_UNIT(LENGTH_MEASURE(0.01),#642,
'DISTANCE_ACCURACY_VALUE',
'Maximum model space distance between geometric entities at asserted c
onnectivities');
#639=UNCERTAINTY_MEASURE_WITH_UNIT(LENGTH_MEASURE(0.01),#642,
'DISTANCE_ACCURACY_VALUE',
'Maximum model space distance between geometric entities at asserted c
onnectivities');
#640=(
GEOMETRIC_REPRESENTATION_CONTEXT(3)
GLOBAL_UNCERTAINTY_ASSIGNED_CONTEXT((#638))
GLOBAL_UNIT_ASSIGNED_CONTEXT((#642,#644,#645))
REPRESENTATION_CONTEXT('','3D')
);
#641=(
GEOMETRIC_REPRESENTATION_CONTEXT(3)
GLOBAL_UNCERTAINTY_ASSIGNED_CONTEXT((#639))
GLOBAL_UNIT_ASSIGNED_CONTEXT((#642,#644,#645))
REPRESENTATION_CONTEXT('','3D')
);
#642=(
LENGTH_UNIT()
NAMED_UNIT(*)
SI_UNIT(.MILLI.,.METRE.)
);
#643=(
LENGTH_UNIT()
NAMED_UNIT(*)
SI_UNIT(.CENTI.,.METRE.)
);
#644=(
NAMED_UNIT(*)
PLANE_ANGLE_UNIT()
SI_UNIT($,.RADIAN.)
);
#645=(
NAMED_UNIT(*)
SI_UNIT($,.STERADIAN.)
SOLID_ANGLE_UNIT()
);
#646=SHAPE_DEFINITION_REPRESENTATION(#647,#648);
#647=PRODUCT_DEFINITION_SHAPE('',$,#650);
#648=SHAPE_REPRESENTATION('',(#386),#640);
#649=DESIGN_CONTEXT('part definition',#654,'design');
#650=PRODUCT_DEFINITION('lid','lid',#651,#649);
#651=PRODUCT_DEFINITION_FORMATION('',$,#656);
#652=PRODUCT_RELATED_PRODUCT_CATEGORY('lid','lid',(#656));
#653=APPLICATION_PROTOCOL_DEFINITION('international standard',
'ap203_configuration_controlled_3d_design_of_mechanical_parts_and_asse
mblies_mim_lf',2004,#654);
#654=APPLICATION_CONTEXT(
'Configuration Controlled 3D Design of Mechanical Parts and Assemblies');
#655=MECHANICAL_CONTEXT('part definition',#654,'mechanical');
#656=PRODUCT('lid','lid',$,(#655));
#657=PRESENTATION_STYLE_ASSIGNMENT((#658));
#658=SURFACE_STYLE_USAGE(.BOTH.,#661);
#659=SURFACE_STYLE_RENDERING_WITH_PROPERTIES($,#665,(#660));
#660=SURFACE_STYLE_TRANSPARENT(0.);
#661=SURFACE_SIDE_STYLE('',(#662,#659));
#662=SURFACE_STYLE_FILL_AREA(#663);
#663=FILL_AREA_STYLE('',(#664));
#664=FILL_AREA_STYLE_COLOUR('',#665);
#665=COLOUR_RGB('',0.749019607843137,0.749019607843137,0.749019607843137);
ENDSEC;
END-ISO-10303-21;
